Oops, an error
Loading. Please wait.

To The Stage Tab

version 1
version 1

Whole song

Interactive

92,971 views 63 this week
2 commentsread comments
1 2 3 4 5
x 26
add to favorites
launch autoscroll
font size
0
reset
how to read this tab
guitar tuner
backing track
0:00
0:00
Autoscroll
slow
fast
+/-
esc
set tempo
stop
Author
Difficulty
Tuning
intermediate
C G C F A D
VIDEO(please watch): http://youtu.be/qhmhNAa9PI8 
Tuning: Drop C
(Guitar 1-Left)

[Intro]
D|---------------------------------|
A|---------------------------------|
F|---------------------------------|
C|---------------------------------|
G|---------------------------------|
C|-0-0-0-0-0-0-0-0-0-0-0-0-0-0-00--|
   *   *   *   *   *   *   *   **  

D|---------------------------------|
A|---------------------------------|
F|---------------------------------|
C|---------------------------------|
G|---------------------------------|
C|-0-0-0-0-0-0-0-0-8888-7777-------|
   *   *   *   *    

D|---------------------------------|
A|---------------------------------|
F|---------------------------------|
C|---------------------------------|
G|---------------------------------|
C|-0-0-0-0-0-0-0-0-0-0-0-0-0-0-00--|
   *   *   *   *   *   *   *   **  

D|---------------------------------|
A|---------------------------------|
F|---------------------------------|
C|---------------------------------|
G|---------------------------------|
C|-0-0-0-0-0-0-0-0-8888-3333-------|
   *   *   *   *                    (2x)

[Verse]
D|---------------------------------|
A|---------------------------------|
F|---------------------------------|
C|---------------------------------|
G|---8---7---5---7---8---7---5555--|
C|-0---0---0---0---0---0---0-------|
   *   *   *   *   *   *   *

D|---------------------------------|
A|---------------------------------|
F|---------------------------------|
C|---------------------------------|
G|---8---7---5---10---8---7---8888-|
C|-0---0---0---0----0---0---0------|
   *   *   *   *    *   *   *

D|---------------------------------|
A|---------------------------------|
F|---------------------------------|
C|---------------------------------|
G|---8---7---5---7---8---7---5555--|
C|-0---0---0---0---0---0---0-------|
   *   *   *   *   *   *   *

D|---------------------------------|
A|---------------------------------|
F|---------------------------------|
C|---------------------------------|
G|---8---7---5---------------------|
C|-0---0---0---0--7-8888-10101010--|(2x)
   *   *   *   *   
                                    
D|---------------------------------|
A|---------------------------------|
F|---------------------------------|
C|-0~~~~~~~~~~~~~~~~~0-------------|
G|-0~~~~(DRUM FILL)~~0-------------|
C|-0~~~~~~~~~~~~~~~~~0-------------|
                     *

[Breakdown]
D|----||------------------------|
A|----||------------------------|
F|----||------------------------|
C|----||------------------------| (2x)
G|-0~-||-00000~--00000~-00(0)~--|^only play this 
C|-0~-||-00000~--00000~-00(0)~--|^the first time
   *     *****   *****  ** *
                    
D|----||------------------------|
A|----||------------------------|
F|----||------------------------|
C|----||------------------------| (2x)
G|-0--||-00000---00000--00(0)---| ^only play this                                   
C|-0--||-00000---00000--00(0)---| ^the first time
   *     *****   *****  ** *
                        
D|-----4+-----------||----------------------|
A|------4+-----5----||----------------------|
F|-------4+----8----||----------------------|
C|--------4+--------||----------------------|(2x)
G|-0~------4+-----0-||-00000---00000--000---|
C|-1~-------------0-||-00000---00000--000---|
   *              *    *****   *****  ***

[Chorus]
D|---------||------------------------|
A|---------||------------------------|
F|-7~-7----||------------------------|
C|-x~-x(4x)||-0------10------8-------|(2x)
G|-5~-5----||-0(16x)-10(16x)-8(32x)--|
C|---------||-0------10------8-------|

[then]
D|-----------------------------------|
A|-----------------------------------|
F|------------------10------9-----7--|
C|-0~~--pickslide---x-(16x)-x(8x)-x--|
G|-0~~--/////////---8-------7-----5--|
C|-0~~--/////////--------------------|

[Intro]
D|---------------------------------|
A|---------------------------------|
F|---------------------------------|
C|---------------------------------|
G|---------------------------------|
C|-0-0-0-0-0-0-0-0-0-0-0-0-0-0-00--|
   *   *   *   *   *   *   *   **  

D|---------------------------------|
A|---------------------------------|
F|---------------------------------|
C|---------------------------------|
G|---------------------------------|
C|-0-0-0-0-0-0-0-0-8888-7777-------|
   *   *   *   *    

D|---------------------------------|
A|---------------------------------|
F|---------------------------------|
C|---------------------------------|
G|---------------------------------|
C|-0-0-0-0-0-0-0-0-0-0-0-0-0-0-00--|
   *   *   *   *   *   *   *   **  

D|---------------------------------|
A|---------------------------------|
F|---------------------------------|
C|---------------------------------|
G|---------------------------------|
C|-0-0-0-0-0-0-0-0-8888-3333-------|
   *   *   *   *    

[Breakdown2]
D|-------------------------|
A|-------------------------|
F|-------------------------|
C|-------------------------|
G|-00~-00~-00~-00~-00~-00~-|
C|-00~-00~-00~-00~-00~-00~-|
   **  **  **  **  **  **

D|------------------------|
A|------------------------|
F|------------------------|
C|------------------------|
G|-00--0-00--00--00---0-0-|
C|-00--0-00--00--00---0-0-|
   **  * **  **  **   * *

[Outro]
D|----------------------------------------|
A|----------------------------------------|
F|-6-----8-----9-----11-----9------8------|
C|-x(8x)-x(8x)-x(8x)-x-(8x)-x(16x)-x(16x)-|
G|-4-----6-----7-----9------7------6------|
C|----------------------------------------|
 
D|------------------------------------------------|
A|------------------------------------------------|
F|-6-----8-----9-----11-----14------12-----11-----|
C|-x(8x)-x(8x)-x(8x)-x-(8x)--x(16x)--x(8x)--x(8x)-|
G|-4-----6-----7-----9------12------10------9-----|
C|------------------------------------------------|

D|----------------------------------------|
A|----------------------------------------|
F|-6-----8-----9-----11-----9------8------|
C|-x(8x)-x(8x)-x(8x)-x-(8x)-x(16x)-x(16x)-|
G|-4-----6-----7-----9------7------6------|
C|----------------------------------------|

D|-------|
A|-------|
F|-6~~---|
C|-x~~---|...and fade out
G|-4~~---|
C|-------|

(Guitar 2-Right)
[Intro]
D|---------------------------------|
A|---------------------------------|
F|---------------------------------|
C|---------------------------------|
G|---------------------------------|
C|-0-0-0-0-0-0-0-0-0-0-0-0-0-0-00--|
   *   *   *   *   *   *   *   **  

D|---------------------------------|
A|---------------------------------|
F|---------------------------------|
C|---------------------------------|
G|---------------------------------|
C|-0-0-0-0-0-0-0-0-8888-7777-------|
   *   *   *   *    

D|---------------------------------|
A|---------------------------------|
F|---------------------------------|
C|---------------------------------|
G|---------------------------------|
C|-0-0-0-0-0-0-0-0-0-0-0-0-0-0-00--|
   *   *   *   *   *   *   *   **  

D|---------------------------------|
A|---------------------------------|
F|---------------------------------|
C|---------------------------------|
G|---------------------------------|
C|-0-0-0-0-0-0-0-0-8888-10101010---|(2x)
   *   *   *   *    
       
[Verse]
D|---------------------------------|
A|---------------------------------|
F|---------------------------------|
C|---7---5---3---5---7---5---3333--|
G|---------------------------------|
C|-0---0---0---0---0---0---0-------|
   *   *   *   *   *   *   *

D|---------------------------------|
A|---------------------------------|
F|---------------------------------|
C|---7---5---3---8---7---5---7777--|
G|---------------------------------|
C|-0---0---0---0---0---0---0-------|
   *   *   *   *   *   *   *

D|---------------------------------|
A|---------------------------------|
F|---------------------------------|
C|---7---5---3---5---7---5---3333--|
G|---------------------------------|
C|-0---0---0---0---0---0---0-------|
   *   *   *   *   *   *   *

D|---------------------------------|
A|---------------------------------|
F|---------------------------------|
C|---7---5---3---------------------|
G|---------------------------------|
C|-0---0---0---0--5-8888-7777------|(2x)
   *   *   *   *   

D|---------------------------------|
A|---------------------------------|
F|---------------------------------|
C|-0~~~~~~~~~~~~~~~~~0-------------|
G|-0~~~~(DRUM FILL)~~0-------------|
C|-0~~~~~~~~~~~~~~~~~0-------------|
                     *

[Breakdown]
D|----||------------------------|
A|----||------------------------|
F|----||------------------------|
C|----||------------------------|(2x)
G|-0~-||-00000~--00000~-00(0)~--| ^only play this 
C|-0~-||-00000~--00000~-00(0)~--| ^the first time
   *     *****   *****  ** *
                         
D|----||------------------------|
A|----||------------------------|
F|----||------------------------|
C|----||------------------------|(2x)
G|-0--||-00000---00000--00(0)---| ^only play this                          
C|-0--||-00000---00000--00(0)---| ^the first time
   *     *****   *****  ** *
                    
D|-----4+-----------||----------------------|
A|------4+-----5----||----------------------|
F|-------4+----8----||----------------------|
C|--------4+--------||----------------------|(2x)
G|-0~------4+-----0-||-00000---00000--000---|
C|-1~-------------0-||-00000---00000--000---|
   *              *    *****   *****  ***

[Chorus]
D|---------------||------------------------|
A|---------------||------------------------|
F|-12~-12/10-----||--------5-------3-------|
C|--x~--x/x-(3x)-||-0------x(16x)--x(32x)--|(2x)
G|-10~-10/8------||-0(16x)-3-------1-------|
C|---------------||-0----------------------|

[then]
D|-----------------------------------|
A|-----------------------------------|
F|------------------7-------9-----10-|
C|-0~~--pickslide---x-(16x)-x(8x)-x--|
G|-0~~--/////////---5-------7-----8--|
C|-0~~--/////////--------------------|

[Intro]
D|---------------------------------|
A|---------------------------------|
F|---------------------------------|
C|---------------------------------|
G|---------------------------------|
C|-0-0-0-0-0-0-0-0-0-0-0-0-0-0-00--|
   *   *   *   *   *   *   *   **  

D|---------------------------------|
A|---------------------------------|
F|---------------------------------|
C|---------------------------------|
G|---------------------------------|
C|-0-0-0-0-0-0-0-0-8888-7777-------|
   *   *   *   *    

D|---------------------------------|
A|---------------------------------|
F|---------------------------------|
C|---------------------------------|
G|---------------------------------|
C|-0-0-0-0-0-0-0-0-0-0-0-0-0-0-00--|
   *   *   *   *   *   *   *   **  

D|---------------------------------|
A|---------------------------------|
F|---------------------------------|
C|---------------------------------|
G|---------------------------------|
C|-0-0-0-0-0-0-0-0-8888-10101010---|
   *   *   *   *    

[Breakdown 2]
D|-------------------------|
A|-------------------------|
F|-------------------------|
C|-------------------------|
G|-00~-00~-00~-00~-00~-00~-|
C|-00~-00~-00~-00~-00~-00~-|
   **  **  **  **  **  **

D|------------------------|
A|------------------------|
F|------------------------|
C|------------------------|
G|-00--0-00--00--00---0-0-|
C|-00--0-00--00--00---0-0-|
   **  * **  **  **   * *

[Outro]
D|---------|
A|---------|
F|-18------|
C|-x-(64x)-|(3x)
G|-16------|
C|---------|

D|--------|
A|--------|
F|-18~~---|
C|--x~~---|...and fade out
G|-16~~---|
C|--------|

************************************

| x    Dead note
| (n)  Ghost note
| /    Slide up
| ~    Vibrato
  
************************************
Suggest correction
comments
print report bad tab
2 comments total.
0 reply
50fitty 10 Aug 23, 2012 02:49 PM

well i havent played it yet, but as i listened to it and read the tab guitar 1 looks like its right on

+1 reply
xxMIWxx 10 Mar 27, 2013 01:47 PM

i tried to watch the video but it said it was unavailable :/

guest
You may want to rate the tab now too:
select rating
Wanna post a correction for this tab? Suggest correction