Oops, an error
Loading. Please wait.
We have an official To The Stage tab made by UG professional guitarists. Check out the tab »
×
1,789 views 12 this week
1 commentread comment
1 2 3 4 5
1 last vote to show rating
add to favorites
×
Save as Personal and add changes to this tab that will be seen only by you. Learn more ›
×
You can save this tab as Personal to edit and correct it or add notes. All changes will be seen only by you. Learn more »
launch autoscroll
font size
0
reset
how to read this tab
guitar tuner
backing track
0:00
0:00
edit
Autoscroll
slow
fast
+/-
esc
set tempo
stop
Today I'm gonna show you how to play To The Stage by Asking Alexandria.
I didn't copy tabs from ug or any other site. I always learn songs by myself.
I hate when someone steal my hard work so I don't do the same.

. - palm muting
* - harmonic


Tunning is Drop C ( C G C F A D ). If you don't know how to tune to drop C you can 
use this site -> http://howtotuneaguitar.org
Here we go.

Intro:
Both guitarists play the same riff

D|--------------------------------------------------|
A|--------------------------------------------------|
F|--------------------------------------------------|
C|--------------------------------------------------|
G|--------------------------------------------------|
C|-0-0--0--0--0--0--0--0--0-0--0--0--0--0-8888-7777-|
   . .  .  .  .  .  .  .  . .  .  .  .  .


D|--------------------------------------------------|
A|--------------------------------------------------|
F|--------------------------------------------------|
C|--------------------------------------------------|
G|--------------------------------------------------|
C|-0-0--0--0--0--0--0--0--0-0--0--0--0--0-8888-3333-|
   . .  .  .  .  .  .  .  . .  .  .  .  .

Both parts play two times. (I'm sure this parts are OK because I hear it on 
headphones!)

Cameron's Part (PLAY IT TWO TIMES)
D|-------------------------------------------|
A|-------------------------------------------|
F|-------------------------------------------|
C|------------------------------5------------|
G|---8-7-5--7-8-7--555--8--7-5-----8--7--888-|
C|-0--0-0--0-0-0-0----8--8--8-8--8--8--8-----|
   .  . .  . . . .    .  .  . .  .  .  .

D|-------------------------------------------|
A|-------------------------------------------|
F|-------------------------------------------|
C|-------------------------------------------|
G|---8-7-5--7-8-7-555---8--7-5---------------|
C|-5--5-5--5-5-5-5-----5--5-5-5--7-8888-3333-|
   .  . .  . . . .     .  . . .

Ben's Part (PLAY IT TWO TIMES)
D|---------------------------------------------------|
A|---------------------------------------------------|
F|---------------------------------------------------|
C|---7-5-3--5-7-5--333-------------------------------|
G|---------------------12--10--8--13--12--10--121212-|
C|-0--0-0--0-0-0-0----8--8---8--8---8---8---8--------|
   .  . .  . . . .    .  .   .  .   .  .  .

D|------------------------------------------------|
A|------------------------------------------------|
F|------------------------------------------------|
C|---7-5----5-7-5--------7--5---------------------|
G|-------8---------888--------8-------------------|
C|-5--5-5--5-5-5-5-----5--5-5--5--7-8888-10101010-|
   .  . .  . . . .     .  . . .


On this parts (3 smart parts) I won't write empty strings perfectly you have to 
figure out when they are.

D|------------------|-------*3-------|------------------|
A|------------------|-------*3-----5-|------------------|
F|------------------|-------*3-----8-|------------------|
C|------------------|-------*3-------|------------------|
G|-0--000--000--000_|--0-------------|-0--000--000--000_|
C|-0--000--000--000-|--1-------------|-0--000--000--000-|

Chorus - Again Ben and Cameron play together the same part.
You play the chorus two times.
D|----------------------------------------|
A|----------------------------------------|
F|----------------------------------------|
C|-7-(16-times)-5-(16-times)-3-(32-times)-|
G|-5------------3------------1------------|
C|----------------------------------------|

And the next part, after the chorus.

D|------------------------------------------------|
A|------------------------------------------------|
F|--10-10--10--10--10--10--10--10-10-9-9-9-9-9-10-|
C|--x--x---x---x---x---x---x---x--x--x-x-x-x-x-x--|
G|--8--8---8---8---8---8---8---8--8--7-7-7-7-7-8--|
C|------------------------------------------------|

Both guitars play the riff from the intro.
D|--------------------------------------------------|
A|--------------------------------------------------|
F|--------------------------------------------------|
C|--------------------------------------------------|
G|--------------------------------------------------|
C|-0-0--0--0--0--0--0--0--0-0--0--0--0--0-8888-7777-|
   . .  .  .  .  .  .  .  . .  .  .  .  .


D|--------------------------------------------------|
A|--------------------------------------------------|
F|--------------------------------------------------|
C|--------------------------------------------------|
G|--------------------------------------------------|
C|-0-0--0--0--0--0--0--0--0-0--0--0--0--0-8888-3333-|
   . .  .  .  .  .  .  .  . .  .  .  .  .

And again empty strings. You have to figure out when it its.

D|----------------------------------------------------------------|
A|----------------------------------------------------------------|
F|-6--6-6-6-6-6-6--8--8-8-8-8-8-8--9--9-9-9-9-9-9--8--8-8-8-8-8-8-|
C|-x--x-x-x-x-x-x--x--x-x-x-x-x-x--x--x-x-x-x-x-x--x--x-x-x-x-x-x-|
G|-4--4-4-4-4-4-4--6--6-6-6-6-6-6--7--7-7-7-7-7-7--6--6-6-6-6-6-6-|
C|----------------------------------------------------------------|


D|---------------------------------------------------------------------|
A|---------------------------------------------------------------------|
F|--6--6-(16-times)-8--8-(16-times)-9--9-(16-times)--11--11-(16-times)-|
C|--x--x------------x--x------------x--x-------------x---x-------------|
G|--4--4------------6--6------------7--7-------------9---9-------------|
C|---------------------------------------------------------------------|

---------------------------------------------------------------------|
---------------------------------------------------------------------|
-14--14-(16-times)--13--13-(16-times)--------------------------------|
-x---x--------------x---x--------------------------------------------|
-12--12-------------11--11-------------------------------------------|
---------------------------------------------------------------------|

            
            
Suggest correction
Creating personal tab
Creating personal tab
You can edit any tab online and save it as your Personal.

You can edit, replace or remove any tab part or add personal notes – all changes will be seen only by you.

Personal tabs can be accessed anytime from any device, even offline.
Learn more »
Give kudos to tab author, rate the tab!
1 2 3 4 5
comments
print report bad tab
1 comment total.
0 reply
capellen58 10 Aug 15, 2017 07:27 AM

Der Tab ist der erste, der den Teil nach dem intro richtig hat! bester Tab von to the stage bis jetzt! gute Arbeit! 😊

guest
You may want to rate the tab now too:
select rating
Wanna post a correction for this tab? Suggest correction