Oops, an error
Loading. Please wait.

Undivided tab

version 2
version 2

Whole song

  • This is one of my favorite AA songs and I saw that... Show more

Interactive

2,139 views 15 this week
2 commentsread comments
1 2 3 4 5
x 4
add to favorites
×
Save as Personal and add changes to this tab that will be seen only by you. Learn more ›
×
You can save this tab as Personal to edit and correct it or add notes. All changes will be seen only by you. Learn more »
launch autoscroll
font size
0
reset
how to read this tab
guitar tuner
edit
Autoscroll
slow
fast
+/-
esc
set tempo
stop
-------------------------------------------------------------------------------
                             SONG NAME - Band Name
-------------------------------------------------------------------------------
Tabbed by: Athan Mad Songz (find my channel in youtube and watch my covers)

I have posted the guitar cover in youtube find it in my channel Athan Mad Songz and comment if you have
questions!!!

Tuning: Drop B
 Intro & Verse 1
e|---------------------------------------------------------------------------|
B|---------------------------------------------------------------------------|
G|---------------------------------------------------------------------------|
D|---------------------------------------------------------------------------|
A|-0-00-00--5--3--5---0-00-00--1-1-1-1-1-1-1-1-------------------------------|
E|-0-00-00--5--3--5---0-00-00--1-1-1-1-1-1-1-1-------------------------------|

e|---------------------------------------------------------------------------||
B|---------------------------------------------------------------------------||
G|---------------------------------------------------------------------------||
D|---------------------------------------------------------------------------||  X4
A|-0-00-00--5--3--5----------------------------------------------------------||
E|-0-00-00--5--3--5---6-6-6--6-6-6-------------------------------------------||


e|---------------------------------------------------------------------------|
B|---------------------------------------------------------------------------|
G|---------------------------------------------------------------------------|
D|--------+5~----------------------------------------------------------------| //I play the harmonic in
A|---------------------------------------------------------------------------|    3rd string 5th thread
E|-0-0-0---------------------------------------------------------------------|

  Chorus
e|--------------------------------------|---------------------------------------------|
B|--------------------------------------|---------------------------------------------|
G|--------------------------------------|---------------------------------------------| x2
D|-0---------3---------5---------1------|---0---------3---------6-------0--1--3-1-3---| //This is all the chorus
A|-0-(x8)----3-(x8)----5-(x8)----1-(x8)-|---0-(x8)----3-(x8)----6-(x8)--0--1--3-1-3---|
E|-0---------3---------5---------1------|---0---------3---------6-------0--1--3-1-3---|

2nd verse (first plays the riff of verse 1 two times and after that:)
e|---------------------------------------------------------------------------|
B|---------------------------------------------------------------------------|
G|---------------------------------------------------------------------------|
D|---------------------------------------------------------------------------|
A|--------------------------------------------------8-7-5-7------------------|
E|-0-0--0-0--0-0---0000--00000-(x3)--0-0--0-0--0-0--8-7-5-7------------------|

e|---------------------------------------------------------------------------|
B|---------------------------------------------------------------------------|
G|---------------------------------------------------------------------------|
D|---------------------------------------------------------------------------|
A|---------------------------------------------------------------------------|
E|-0-0--0-0--0-0---0000--00000-(x3)--0-0--0-0--0-0--0------------------------|

Bridge
e|---------------------------------------------------------------------------|
B|---------------------------------------------------------------------------|
G|---------------------------------------------------------------------------|
D|--------------3------------------------------------------------------------| Rythm guitar
A|-0---8--5--7--3------------------------------------------------------------|
E|-0---8--5--7--3------------------------------------------------------------|

Breakdown
e|------------------------------------------|------------------------------------------|
B|------------------------------------------|------------------------------------------|
G|------------------------------------------|------------------------------------------|
D|------------------------------------------|------------------------------------------| x2
A|------------------------------------------|------------------------------------------|
E|-00--00--0---000000--00--00--0--00--00--0-|-00--00--0---000000--00--00--0--8--5--7---|

After a big pause and before last chorus:
 pm pm pm pm pm pm pm pm pm
e|---------------------------------------------------------------------------|
B|---------------------------------------------------------------------------|
G|---------------------------------------------------------------------------|
D|---------------------------------------------------------------------------|
A|----------------------------8-5-7-2\---------------------------------------|
E|-0-0-0-0-0-0-0-0-0-0-0-0----8-5-7-12\--------------------------------------|

Last chorus: 
e|--------------------------------------|---------------------------------------------|
B|--------------------------------------|---------------------------------------------|
G|--------------------------------------|---------------------------------------------|
D|-0---------3---------5---------1------|---0---------3---------6-------0--1--3-1-3---|
A|-0-(x8)----3-(x8)----5-(x8)----1-(x8)-|---0-(x8)----3-(x8)----6-(x8)--0--1--3-1-3---|
E|-0---------3---------5---------1------|---0---------3---------6-------0--1--3-1-3---|

e|--------------------------------------|---------------------------------------------|
B|--------------------------------------|---------------------------------------------|
G|--------------------------------------|---------------------------------------------|
D|-0---------3---------5---------1------|---0---------3---------5----------x----------|
A|-0-(x8)----3-(x8)----5-(x8)----1-(x8)-|---0-(x8)----3-(x8)----5-(x8)-----x----------|
E|-0---------3---------5---------1------|---0---------3---------5----------x----------|

Outro:
e|--------------------------------|--------------------------------------------|
B|--------------------------------|--------------------------------------------|
G|--------------------------------|--------------------------------------------|
D|--------------------------------|--------------------------------------------|
A|--------------------------------|---------------------------------5-3-5-6----|
E|-0-0--0-0--0-0-(x3)--6-6-6-6-5\-|-0-0--0-0--0-0-(x2)--0-0--0-0--0-5-3-5-6----|

************************************

| /   slide up
| \   slide down
| h   hammer-on
| p   pull-off
| ~   vibrato
| +   harmonic
| x   Mute note
| b   Bend
| pb  Pre-bend
| br  Bend release
| pbr Pre-bend release
| brb Bend release bend

************************************

            
            
Suggest correction
Creating personal tab
Creating personal tab
You can edit any tab online and save it as your Personal.

You can edit, replace or remove any tab part or add personal notes – all changes will be seen only by you.

Personal tabs can be accessed anytime from any device, even offline.
Learn more »
comments
print report bad tab
2 comments total.
+1 reply
Slink182 10 Dec 01, 2015 06:12 PM

Meh... Where is the lead guitar for this?

0 reply
athamade1 53 Jan 11, 2016 12:47 AM

bro I couldn't play that guitar at some point, but I know that other guys have posted the other guitar on youtube so find it there

guest
You may want to rate the tab now too:
select rating
Wanna post a correction for this tab? Suggest correction