Oops, an error
Loading. Please wait.

When Everydays The Weekend Tab

version 1
version 1

Whole song

Interactive

35,988 views 27 this week
7 commentsread comments
1 2 3 4 5
excellent!
x 4
add to favorites
launch autoscroll
font size
0
reset
how to read this tab
guitar tuner
Autoscroll
slow
fast
+/-
esc
set tempo
stop
Help us to improve Ultimate-Guitar.com Take our survey!
×
Author
Difficulty
Tuning
novice
D A D G B E
Heres my best interpretation of "When Everydays The Weekend"

[]= Pinch Harmonic
h = Hammer-on
p = Pull-off
* = Palm Mute
/ = Slide Up
\ = Slide Down
<>= Vibrato
" = Tremolo Pick
~ = Let Note Ring


E|---------------------------------|
B|---------------------------------|
G|---------------------------------|
D|-------------8-7-----------------|
A|-000--8p7--------8p7-10p8-8p7----|
D|-000------10---------------------|
   ***

E|---------------------------------|
B|---------------------------------|
G|---------------------------------|
D|-------------8-7-----------------|
A|-000--8p7--------8p7-10p8-<8>----|
D|-000------10---------------------|
   ***

E|---------------------------------|
B|---------------------------------|
G|---------------------------------|
D|-------------8-7-----------------|
A|-000--8p7--------8p7-10p8-8p7----|
D|-000------10---------------------|
   ***

E|------------------|
B|------------------|
G|------------------|
D|-------------8-7--|
A|-000--8p7---------|
D|-000------10------|
   ***

0:12   "Another sunset..."
E|----------------------------|
B|----------------------------|
G|----------------------------| x3
D|-------------8-7------------|
A|-000--8p7--------8p7-10p8---|
D|-000------10----------------|
   ***

E|---------------------------------|
B|---------------------------------|
G|---------------------------------|
D|-------------8-7-----------------|
A|-000--8p7--------8p7-10p8-8p7----|
D|-000------10---------------------|
   ***

E|----------------------------|
B|----------------------------|
G|----------------------------| x3
D|-------------8-7------------|
A|-000--8p7--------8p7-10p8---|
D|-000------10----------------|
   ***

E|---------------------------------|
B|---------------------------------|
G|---------------------------------|
D|-------------8-7-----------------|
A|-000--8p7--------8p7-10p8-8p7----|
D|-000------10---------------------|
   ***

0:32
E|---------------------------------------------------------|
B|---------------------------------------------------------|
G|---------------------------------------------------------|
D|---------------------------------------------------------|
A|--000-000--00000--00000--00000-000-000--00000--000-------|
D|--000-000--00000--00000--00000-000-000--00000--000-------|
    *** ***  *****  *****  ***** *** ***  *****  ***


0:37 "...ROLL!"
E|----------------------------------------------------------------|
B|----------------------------------------------------------------|
G|----------------------------------------------------------------|
D|----------------------------------------------------------------|
A|--000-000--00000--00000--00000-000-000--00000--00000--00000-----|
D|--000-000--00000--00000--00000-000-000--00000--00000--00000-----|
    *** ***  *****  *****  ***** *** ***  *****  *****  *****

0:42 "It's Amazing..."
E|----------------------------------------------------------------|
B|----------------------------------------------------------------|
G|----------------------------------------------------------------|
D|----------------------------------------------------------------|
A|--000-000--00000--00000--00000-000-000--00000--00000--0-0-0-----|
D|--111-111--11111--11111--11111-111-111--11111--11111--1-1-1-----|


0:47
E|-----------------------------------------|
B|-----------------------------------------|
G|-----------------------------------------|
D|-----------------------------------------|
A|-0-0--00--00--000-0-0--00--00--000-------|
D|-0-0--00--00--000-0-0--00--00--000-------|
   * *  **  **  *** * *  **  **  ***

E|-----------------------------------------|
B|-----------------------------------------|
G|-----------------------------------------|
D|-----------------------------------------|
A|-0-0~--00~--00~--000-0-0~--00~--00-------|
D|-0-0~--00~--00~--000-0-0~--00~--00-------|
                   ***            **

0:58 "Tonight's our night, like every night before..."
E|----------------------------|
B|----------------------------|
G|--10------12-----9----------| x3
D|--X-(x14)-X-(x7)-X-(x7)-----|
A|--8-------10-----7----------|
D|----------------------------|

1:13 "Until we fall..."
E|---------------------------|
B|---------------------------|
G|--10-------9-------7-------|
D|--X-(x14)--X-(x7)--X-(x7)--|
A|--8--------7-------5-------|
D|---------------------------|


1:19
E|-------------------------------------|
B|-------------------------------------|
G|-----------------------------10--9---|
D|--0~-------------------------X---X---|
A|--0~-------------------------8---7---|
D|--0~---------------------------------|


1:25       "We'll drink you under the fucking table"                     
E|----------------------------------------|
B|----------------------------------------|
G|---------------------------10----9------|
D|--0~-----------------------X-----X------|
A|--0~-----------------------8-----7------|
D|--0~-------------------------0-0--------|
                               * *

  "Rack 'em up!"
E|-----------------------|
B|-----------------------|
G|-----------------------|
D|-----------------------| x3
A|--0-0--0000---000000---|
D|--0-0--0000---000000---|
    * *  ****   ******

  "Put 'em down!"
E|-----------------|
B|-----------------|
G|-----------------|
D|-----------------|
A|--0-0--0000------|
D|--0-0--0000------|
    * *  ****

1:48
E|---------------------------|
B|---------------------------|
G|---------------------------|
D|---------------------------| x2
A|--0~-0~--0000~---000000~---|
D|--0~-0~--0000~---000000~---|


E|-------|
B|-------|
G|-------|
D|-------|
A|-000~--|
D|-000~--|



Then the Interlude/Dance Party part

Guitar doesn't resume til 2:43


2:43
E|-----------------------------------|
B|-----------------------------------|
G|-----------------------------------|
D|-----------------------------------|
A|--000000-0-00-00--0000000-000-000--|
D|--000000-0-00-00--0000000-000-000--|
    ****** * ** **  ******* *** ***                                 
                                                            

E|----------------------------------|
B|----------------------------------|
G|--------------------------10--9---|
D|--------------------------X---X---|
A|-000-000--00-00--000-000--8---7---|
D|-000-000--00-00--000-000----------|
   *** ***  ** **  *** ***


E|-----------------------------------|
B|-----------------------------------|
G|-----------------------------------|
D|-----------------------------------|
A|--000000-0-00-00--0000000-000-000--|
D|--000000-0-00-00--0000000-000-000--|
    ****** * ** **  ******* *** ***


E|----------------------------------|
B|----------------------------------|
G|--------------------------10--9---|
D|--------------------------X---X---|
A|-000-000--00-00--000-000--8---7---|
D|-000-000--00-00--000-000----------|
   *** ***  ** **  *** ***


E|-----------------------------------|
B|-----------------------------------|
G|-----------------------------------|
D|-----------------------------------|
A|--000000-0-00-00--0000000-000-000--|
D|--000000-0-00-00--0000000-000-000--|
    ****** * ** **  ******* *** ***


E|----------------------------------|
B|----------------------------------|
G|--------------------------10--9---|
D|--------------------------X---X---|
A|-000-000--00-00--000-000--8---7---|
D|-000-000--00-00--000-000----------|
   *** ***  ** **  *** ***


E|-----------------------------------|
B|-----------------------------------|
G|-----------------------------------|
D|-----------------------------------|
A|--000000-0-00-00--0000000-000-000--|
D|--000000-0-00-00--0000000-000-000--|
    ****** * ** **  ******* *** ***


E|----------------------------------|
B|----------------------------------|
G|--------------------------10--9---|
D|--------------------------X---X---|
A|-000-000--00-00--000-000--8---7---|
D|-000-000--00-00--000-000----------|
   *** ***  ** **  *** ***


3:15
E|------|
B|------|
G|------|
D|-0~---|
A|-0~---|
D|-0~---|


Then its just synth playing til the end of the song :)


got any questions/comments/smart remarks?
email me at john.boyer15@yahoo.com
Suggest correction
What's this?
You can suggest a correction to this tab. Community and Mods will review your correction and vote to approve or reject it.
comments
print report bad tab
7 comments total. Showing first comments.
-1 reply
Johnsta15 166 wrote on January 21 2010, 05:57 am

it actually goes

0:12-0:32
E|----------------------------|
B|----------------------------|
G|----------------------------|
D|-------------8-7------------|
A|-000--8p7--------8p7-10p8---|
D|-000------10----------------|
***

E|----------------------------|
B|----------------------------|
G|----------------------------|
D|-------------8-7-----10-----|
A|-000--8p7--------8p7----8---|
D|-000------10----------------|
***

E|----------------------------|
B|----------------------------|
G|----------------------------|
D|-------------8-7------------|
A|-000--8p7--------8p7-10p8---|
D|-000------10----------------|
***

E|---------------------------------|
B|---------------------------------|
G|---------------------------------|
D|-------------8-7-----------------|
A|-000--8p7--------8p7-10p8-8p7----|
D|-000------10---------------------|
***


and repeats twice

-1 reply
cworosz24 69 wrote on March 24 2010, 01:14 am

Your chorus is wrong.
It's actually

e|--------------------|
B|o------------------o|
G|--10----14----12----|
D|--x-x16-x--x8-x-x8--| x4
A|o-8-----12----10---o|
D|--------------------|

+1 reply
attab0i408 13 wrote on March 28 2010, 01:26 pm

actually, Johnsta15, it goes like this:

E|---------------------------------|
B|---------------------------------|
G|---------------------------------|
D|-------------8-7-----------------|
A|-000--8p7--------8p7-10p8-7h8----|
D|-000------10---------------------|
***

guest
You may want to rate the tab now too:
select rating
Please do not post tabs as comments. Select "correction" instead!