Oops, an error
Loading. Please wait.

Me And Mary tab

67 views 1 this week
no commentswrite comment
1 2 3 4 5
3 more votes to show rating
add to favorites
×
Save as Personal and add changes to this tab that will be seen only by you. Learn more ›
×
You can save this tab as Personal to edit and correct it or add notes. All changes will be seen only by you. Learn more »
launch autoscroll
font size
0
reset
how to read this tab
guitar tuner
edit
Autoscroll
slow
fast
+/-
esc
set tempo
stop
Author
Difficulty
Asobi Seksu
"Me & Mary"

Standard tuning


[Verse]

e|4-4-4-4-4-4-4-4-|4-4-4-4-4-4-4-4-|5-5-5-5-5-5-5-5-|5-5-5-5-5-5-5-5-|
B|4-4-4-4-4-4-4-4-|5-5-5-5-5-5-5-5-|5-5-5-5-5-5-5-5-|5-5-5-5-5-5-5-5-|
G|4-4-4-4-4-4-4-4-|6-6-6-6-6-6-6-6-|6-6-6-6-6-6-6-6-|6-6-6-6-6-6-6-6-|
D|6-6-6-6-6-6-6-6-|6-6-6-6-6-6-6-6-|7-7-7-7-7-7-7-7-|7-7-7-7-7-7-7-7-|
A|6-6-6-6-6-6-6-6-|4-4-4-4-4-4-4-4-|7-7-7-7-7-7-7-7-|7-7-7-7-7-7-7-7-|
E|4-4-4-4-4-4-4-4-|----------------|5-5-5-5-5-5-5-5-|5-5-5-5-5-5-5-5-|

e|7-7-7-7-7-7-7-7-|5-5-5-5-5-5-5-5-|4-4-4-4-4-4-4-4-|5-5-5-5-5-5-5-5-|
B|7-7-7-7-7-7-7-7-|5-5-5-5-5-5-5-5-|4-4-4-4-4-4-4-4-|5-5-5-5-5-5-5-5-|
G|8-8-8-8-8-8-8-8-|6-6-6-6-6-6-6-6-|4-4-4-4-4-4-4-4-|6-6-6-6-6-6-6-6-|
D|9-9-9-9-9-9-9-9-|7-7-7-7-7-7-7-7-|6-6-6-6-6-6-6-6-|7-7-7-7-7-7-7-7-| X2
A|9-9-9-9-9-9-9-9-|7-7-7-7-7-7-7-7-|6-6-6-6-6-6-6-6-|7-7-7-7-7-7-7-7-|
E|7-7-7-7-7-7-7-7-|5-5-5-5-5-5-5-5-|4-4-4-4-4-4-4-4-|5-5-5-5-5-5-5-5-|

e|7-7-7-7-7-7-7-7-|7-7-7-7-7-7-7-7-|7-7-7-7-7-7-7-7-|7-7-7-7-7-7-7-7-|
B|7-7-7-7-7-7-7-7-|7-7-7-7-7-7-7-7-|7-7-7-7-7-7-7-7-|7-7-7-7-7-7-7-7-|
G|8-8-8-8-8-8-8-8-|8-8-8-8-8-8-8-8-|8-8-8-8-8-8-8-8-|8-8-8-8-8-8-8-8-|
D|9-9-9-9-9-9-9-9-|9-9-9-9-9-9-9-9-|9-9-9-9-9-9-9-9-|9-9-9-9-9-9-9-9-|
A|9-9-9-9-9-9-9-9-|9-9-9-9-9-9-9-9-|9-9-9-9-9-9-9-9-|9-9-9-9-9-9-9-9-|
E|7-7-7-7-7-7-7-7-|7-7-7-7-7-7-7-7-|7-7-7-7-7-7-7-7-|7-7-7-7-7-7-7-7-|


[Chorus]

e|2-2-2-2-2-2-2-2-|2-2-2-2-2-2-2-2-|4-4-4-4-4-4-4-4-|4-4-4-4-4-4-4-4-|
B|2-2-2-2-2-2-2-2-|2-2-2-2-2-2-2-2-|4-4-4-4-4-4-4-4-|4-4-4-4-4-4-4-4-|
G|2-2-2-2-2-2-2-2-|2-2-2-2-2-2-2-2-|4-4-4-4-4-4-4-4-|4-4-4-4-4-4-4-4-|
D|4-4-4-4-4-4-4-4-|4-4-4-4-4-4-4-4-|6-6-6-6-6-6-6-6-|6-6-6-6-6-6-6-6-|
A|4-4-4-4-4-4-4-4-|4-4-4-4-4-4-4-4-|6-6-6-6-6-6-6-6-|6-6-6-6-6-6-6-6-|
E|2-2-2-2-2-2-2-2-|2-2-2-2-2-2-2-2-|4-4-4-4-4-4-4-4-|4-4-4-4-4-4-4-4-|

e|7-7-7-7-7-7-7-7-|7-7-7-7-7-7-7-7-|4-4-4-4-4-4-4-4-|4-4-4-4-4-4-4-4-|
B|7-7-7-7-7-7-7-7-|7-7-7-7-7-7-7-7-|5-5-5-5-5-5-5-5-|5-5-5-5-5-5-5-5-|
G|8-8-8-8-8-8-8-8-|8-8-8-8-8-8-8-8-|6-6-6-6-6-6-6-6-|6-6-6-6-6-6-6-6-|
D|9-9-9-9-9-9-9-9-|9-9-9-9-9-9-9-9-|6-6-6-6-6-6-6-6-|6-6-6-6-6-6-6-6-|
A|9-9-9-9-9-9-9-9-|9-9-9-9-9-9-9-9-|4-4-4-4-4-4-4-4-|4-4-4-4-4-4-4-4-|
E|7-7-7-7-7-7-7-7-|7-7-7-7-7-7-7-7-|----------------|----------------|


[Bridge]

  Keyboard arranged for guitar
e|----4---7-----9-|11-11--9---7--4-|----4---7-----9-|11-11--9---7--4-|
B|----------------|----------------|----------------|----------------|
G|----------------|----------------|----------------|----------------|
D|----------------|----------------|----------------|----------------|
A|----------------|----------------|----------------|----------------|
E|----------------|----------------|----------------|----------------|
 |
e|0---------------|----------------|0---------------|----------------|
B|0---------------|----------------|0---------------|----------------|
G|1---------------|----------------|1---------------|----------------|
D|2---------------|----------------|2---------------|----------------|
A|----------------|----------------|----------------|----------------|
E|----------------|----------------|----------------|----------------|

e|----4---7-----7-|9--9--11---9--7-|----4---7-----7-|9--9--11---9--7-|
B|----------------|----------------|----------------|----------------|
G|----------------|----------------|----------------|----------------|
D|----------------|----------------|----------------|----------------|
A|----------------|----------------|----------------|----------------|
E|----------------|----------------|----------------|----------------|
 |
e|7---------------|----------------|7---------------|----------------|
B|7---------------|----------------|7---------------|----------------|
G|8---------------|----------------|8---------------|----------------|
D|9---------------|----------------|9---------------|----------------|
A|9---------------|----------------|9---------------|----------------|
E|7---------------|----------------|7---------------|----------------|

e|----4---7-----9-|11-11--9---7--4-|----4---7-----9-|11-11--9---7--4-|
B|----------------|----------------|----------------|----------------|
G|----------------|----------------|----------------|----------------|
D|----------------|----------------|----------------|----------------|
A|----------------|----------------|----------------|----------------|
E|----------------|----------------|----------------|----------------|
 |
e|0---------------|----------------|0---------------|----------------|
B|0---------------|----------------|0---------------|----------------|
G|1---------------|----------------|1---------------|----------------|
D|2---------------|----------------|2---------------|----------------|
A|----------------|----------------|----------------|----------------|
E|----------------|----------------|----------------|----------------|

e|----4---7-----7-|9--9--11---9--7-|----4---7-----7-|9--9--11---9--7-|
B|----------------|----------------|----------------|----------------|
G|----------------|----------------|----------------|----------------|
D|----------------|----------------|----------------|----------------|
A|----------------|----------------|----------------|----------------|
E|----------------|----------------|----------------|----------------|
 |
e|5---------------|----------------|5---------------|----------------|
B|5---------------|----------------|5---------------|----------------|
G|6---------------|----------------|6---------------|----------------|
D|7---------------|----------------|7---------------|----------------|
A|7---------------|----------------|7---------------|----------------|
E|5---------------|----------------|5---------------|----------------|


[Verse]

e|4-4-4-4-4-4-4-4-|4-4-4-4-4-4-4-4-|5-5-5-5-5-5-5-5-|5-5-5-5-5-5-5-5-|
B|4-4-4-4-4-4-4-4-|5-5-5-5-5-5-5-5-|5-5-5-5-5-5-5-5-|5-5-5-5-5-5-5-5-|
G|4-4-4-4-4-4-4-4-|6-6-6-6-6-6-6-6-|6-6-6-6-6-6-6-6-|6-6-6-6-6-6-6-6-|
D|6-6-6-6-6-6-6-6-|6-6-6-6-6-6-6-6-|7-7-7-7-7-7-7-7-|7-7-7-7-7-7-7-7-|
A|6-6-6-6-6-6-6-6-|4-4-4-4-4-4-4-4-|7-7-7-7-7-7-7-7-|7-7-7-7-7-7-7-7-|
E|4-4-4-4-4-4-4-4-|----------------|5-5-5-5-5-5-5-5-|5-5-5-5-5-5-5-5-|

e|7-7-7-7-7-7-7-7-|5-5-5-5-5-5-5-5-|4-4-4-4-4-4-4-4-|5-5-5-5-5-5-5-5-|
B|7-7-7-7-7-7-7-7-|5-5-5-5-5-5-5-5-|4-4-4-4-4-4-4-4-|5-5-5-5-5-5-5-5-|
G|8-8-8-8-8-8-8-8-|6-6-6-6-6-6-6-6-|4-4-4-4-4-4-4-4-|6-6-6-6-6-6-6-6-|
D|9-9-9-9-9-9-9-9-|7-7-7-7-7-7-7-7-|6-6-6-6-6-6-6-6-|7-7-7-7-7-7-7-7-| X2
A|9-9-9-9-9-9-9-9-|7-7-7-7-7-7-7-7-|6-6-6-6-6-6-6-6-|7-7-7-7-7-7-7-7-|
E|7-7-7-7-7-7-7-7-|5-5-5-5-5-5-5-5-|4-4-4-4-4-4-4-4-|5-5-5-5-5-5-5-5-|

e|7-7-7-7-7-7-7-7-|7-7-7-7-7-7-7-7-|7-7-7-7-7-7-7-7-|7-7-7-7-7-7-7-7-|
B|7-7-7-7-7-7-7-7-|7-7-7-7-7-7-7-7-|7-7-7-7-7-7-7-7-|7-7-7-7-7-7-7-7-|
G|8-8-8-8-8-8-8-8-|8-8-8-8-8-8-8-8-|8-8-8-8-8-8-8-8-|8-8-8-8-8-8-8-8-|
D|9-9-9-9-9-9-9-9-|9-9-9-9-9-9-9-9-|9-9-9-9-9-9-9-9-|9-9-9-9-9-9-9-9-|
A|9-9-9-9-9-9-9-9-|9-9-9-9-9-9-9-9-|9-9-9-9-9-9-9-9-|9-9-9-9-9-9-9-9-|
E|7-7-7-7-7-7-7-7-|7-7-7-7-7-7-7-7-|7-7-7-7-7-7-7-7-|7-7-7-7-7-7-7-7-|


[Chorus]

e|2-2-2-2-2-2-2-2-|2-2-2-2-2-2-2-2-|4-4-4-4-4-4-4-4-|4-4-4-4-4-4-4-4-|
B|2-2-2-2-2-2-2-2-|2-2-2-2-2-2-2-2-|4-4-4-4-4-4-4-4-|4-4-4-4-4-4-4-4-|
G|2-2-2-2-2-2-2-2-|2-2-2-2-2-2-2-2-|4-4-4-4-4-4-4-4-|4-4-4-4-4-4-4-4-|
D|4-4-4-4-4-4-4-4-|4-4-4-4-4-4-4-4-|6-6-6-6-6-6-6-6-|6-6-6-6-6-6-6-6-|
A|4-4-4-4-4-4-4-4-|4-4-4-4-4-4-4-4-|6-6-6-6-6-6-6-6-|6-6-6-6-6-6-6-6-|
E|2-2-2-2-2-2-2-2-|2-2-2-2-2-2-2-2-|4-4-4-4-4-4-4-4-|4-4-4-4-4-4-4-4-|

e|7-7-7-7-7-7-7-7-|7-7-7-7-7-7-7-7-|4-4-4-4-4-4-4-4-|4-4-4-4-4-4-4-4-|
B|7-7-7-7-7-7-7-7-|7-7-7-7-7-7-7-7-|5-5-5-5-5-5-5-5-|5-5-5-5-5-5-5-5-|
G|8-8-8-8-8-8-8-8-|8-8-8-8-8-8-8-8-|6-6-6-6-6-6-6-6-|6-6-6-6-6-6-6-6-|
D|9-9-9-9-9-9-9-9-|9-9-9-9-9-9-9-9-|6-6-6-6-6-6-6-6-|6-6-6-6-6-6-6-6-|
A|9-9-9-9-9-9-9-9-|9-9-9-9-9-9-9-9-|4-4-4-4-4-4-4-4-|4-4-4-4-4-4-4-4-|
E|7-7-7-7-7-7-7-7-|7-7-7-7-7-7-7-7-|----------------|----------------|


[Bridge]

  Guitar overdub
e|----------------|----------------|----------------|----------------|
B|----------------|----------------|----------------|----------------|
G|----8~----------|----------------|----6~----------|----------------|
D|----------------|----------------|----------------|----------------|
A|----------------|----------------|----------------|----------------|
E|----------------|----------------|----------------|----------------|
 |
e|7---------------|----------------|7---------------|----------------|
B|9---------------|----------------|9---------------|----------------|
G|8---------------|----------------|8---------------|----------------|
D|9---------------|----------------|9---------------|----------------|
A|7---------------|----------------|7---------------|----------------|
E|----------------|----------------|----------------|----------------|

e|----------------|----------------|----------------|----------------|
B|----------------|----------------|----------------|----------------|
G|----8~----------|----------------|----------------|----------------|
D|----------------|----------------|pb7r6~----------|----------------|
A|----------------|----------------|----------------|----------------|
E|----------------|----------------|----------------|----------------|
 |
e|----------------|----------------|----------------|----------------|
B|4---------------|----------------|5---------------|----------------|
G|4---------------|----------------|4---------------|----------------|
D|6---------------|----------------|6---------------|----------------|
A|4---------------|----------------|7---------------|----------------|
E|----------------|----------------|----------------|----------------|

e|----------------|----------------|----------------|----------------|
B|----------------|----------------|----------------|----------------|
G|----8~----------|----------------|----6~----------|----------------|
D|----------------|----------------|----------------|----------------|
A|----------------|----------------|----------------|----------------|
E|----------------|----------------|----------------|----------------|
 |
e|7---------------|----------------|7---------------|----------------|
B|9---------------|----------------|9---------------|----------------|
G|8---------------|----------------|8---------------|----------------|
D|9---------------|----------------|9---------------|----------------|
A|7---------------|----------------|7---------------|----------------|
E|----------------|----------------|----------------|----------------|

e|----------------|----------------|----------------|----------------|
B|----------------|----------------|----7~----------|----------------|
G|----9~----------|----------------|----------------|----------------|
D|----------------|----------------|----------------|----------------|
A|----------------|----------------|----------------|----------------|
E|----------------|----------------|----------------|----------------|
 |
e|4---------------|----------------|----------------|----------------|
B|5---------------|----------------|----------------|----------------|
G|4---------------|----------------|4---------------|----------------|
D|6---------------|----------------|4---------------|----------------|
A|4---------------|----------------|6---------------|----------------|
E|----------------|----------------|4---------------|----------------|

e|----------------|----------------|
B|10~-------------|----------------|
G|----------------|----------------|
D|----------------|----------------|
A|----------------|----------------|
E|----------------|----------------|
 |
e|7-7-7-7-7-7-7-7-|7-7-7-7-7-7-7-7-|
B|7-7-7-7-7-7-7-7-|7-7-7-7-7-7-7-7-|
G|8-8-8-8-8-8-8-8-|8-8-8-8-8-8-8-8-|
D|9-9-9-9-9-9-9-9-|9-9-9-9-9-9-9-9-|
A|9-9-9-9-9-9-9-9-|9-9-9-9-9-9-9-9-|
E|7-7-7-7-7-7-7-7-|7-7-7-7-7-7-7-7-|

[Verse]

e|4-4-4-4-4-4-4-4-|4-4-4-4-4-4-4-4-|5-5-5-5-5-5-5-5-|5-5-5-5-5-5-5-5-|
B|4-4-4-4-4-4-4-4-|5-5-5-5-5-5-5-5-|5-5-5-5-5-5-5-5-|5-5-5-5-5-5-5-5-|
G|4-4-4-4-4-4-4-4-|6-6-6-6-6-6-6-6-|6-6-6-6-6-6-6-6-|6-6-6-6-6-6-6-6-|
D|6-6-6-6-6-6-6-6-|6-6-6-6-6-6-6-6-|7-7-7-7-7-7-7-7-|7-7-7-7-7-7-7-7-|
A|6-6-6-6-6-6-6-6-|4-4-4-4-4-4-4-4-|7-7-7-7-7-7-7-7-|7-7-7-7-7-7-7-7-|
E|4-4-4-4-4-4-4-4-|----------------|5-5-5-5-5-5-5-5-|5-5-5-5-5-5-5-5-|

e|7-7-7-7-7-7-7-7-|5-5-5-5-5-5-5-5-|4-4-4-4-4-4-4-4-|5-5-5-5-5-5-5-5-|
B|7-7-7-7-7-7-7-7-|5-5-5-5-5-5-5-5-|4-4-4-4-4-4-4-4-|5-5-5-5-5-5-5-5-|
G|8-8-8-8-8-8-8-8-|6-6-6-6-6-6-6-6-|4-4-4-4-4-4-4-4-|6-6-6-6-6-6-6-6-|
D|9-9-9-9-9-9-9-9-|7-7-7-7-7-7-7-7-|6-6-6-6-6-6-6-6-|7-7-7-7-7-7-7-7-|
A|9-9-9-9-9-9-9-9-|7-7-7-7-7-7-7-7-|6-6-6-6-6-6-6-6-|7-7-7-7-7-7-7-7-|
E|7-7-7-7-7-7-7-7-|5-5-5-5-5-5-5-5-|4-4-4-4-4-4-4-4-|5-5-5-5-5-5-5-5-|

e|7-7-7-7-7-7-7-7-|7-7-7-7-7-7-7-7-|7-7-7-7-7-7-7-7-|7-7-7-7-7-7-7-7-|
B|7-7-7-7-7-7-7-7-|7-7-7-7-7-7-7-7-|7-7-7-7-7-7-7-7-|7-7-7-7-7-7-7-7-|
G|8-8-8-8-8-8-8-8-|8-8-8-8-8-8-8-8-|8-8-8-8-8-8-8-8-|8-8-8-8-8-8-8-8-|
D|9-9-9-9-9-9-9-9-|9-9-9-9-9-9-9-9-|9-9-9-9-9-9-9-9-|9-9-9-9-9-9-9-9-|
A|9-9-9-9-9-9-9-9-|9-9-9-9-9-9-9-9-|9-9-9-9-9-9-9-9-|9-9-9-9-9-9-9-9-|
E|7-7-7-7-7-7-7-7-|7-7-7-7-7-7-7-7-|7-7-7-7-7-7-7-7-|7-7-7-7-7-7-7-7-|


[Chorus]

e|2-2-2-2-2-2-2-2-|2-2-2-2-2-2-2-2-|4-4-4-4-4-4-4-4-|4-4-4-4-4-4-4-4-|
B|2-2-2-2-2-2-2-2-|2-2-2-2-2-2-2-2-|4-4-4-4-4-4-4-4-|4-4-4-4-4-4-4-4-|
G|2-2-2-2-2-2-2-2-|2-2-2-2-2-2-2-2-|4-4-4-4-4-4-4-4-|4-4-4-4-4-4-4-4-|
D|4-4-4-4-4-4-4-4-|4-4-4-4-4-4-4-4-|6-6-6-6-6-6-6-6-|6-6-6-6-6-6-6-6-|
A|4-4-4-4-4-4-4-4-|4-4-4-4-4-4-4-4-|6-6-6-6-6-6-6-6-|6-6-6-6-6-6-6-6-|
E|2-2-2-2-2-2-2-2-|2-2-2-2-2-2-2-2-|4-4-4-4-4-4-4-4-|4-4-4-4-4-4-4-4-|

e|7-7-7-7-7-7-7-7-|7-7-7-7-7-7-7-7-|4-4-4-4-4-4-4-4-|4-4-4-4-4-4-4-4-|
B|7-7-7-7-7-7-7-7-|7-7-7-7-7-7-7-7-|5-5-5-5-5-5-5-5-|5-5-5-5-5-5-5-5-|
G|8-8-8-8-8-8-8-8-|8-8-8-8-8-8-8-8-|6-6-6-6-6-6-6-6-|6-6-6-6-6-6-6-6-|
D|9-9-9-9-9-9-9-9-|9-9-9-9-9-9-9-9-|6-6-6-6-6-6-6-6-|6-6-6-6-6-6-6-6-|
A|9-9-9-9-9-9-9-9-|9-9-9-9-9-9-9-9-|4-4-4-4-4-4-4-4-|4-4-4-4-4-4-4-4-|
E|7-7-7-7-7-7-7-7-|7-7-7-7-7-7-7-7-|----------------|----------------|

e|4-4-4-4-4-4-4-4-|4-4-4-4-4-4-4-4-|4-4-4-4-4-4-4-4-|4-4-4-4-4-4-4-4-|
B|5-5-5-5-5-5-5-5-|5-5-5-5-5-5-5-5-|5-5-5-5-5-5-5-5-|5-5-5-5-5-5-5-5-|
G|6-6-6-6-6-6-6-6-|6-6-6-6-6-6-6-6-|6-6-6-6-6-6-6-6-|6-6-6-6-6-6-6-6-|
D|6-6-6-6-6-6-6-6-|6-6-6-6-6-6-6-6-|6-6-6-6-6-6-6-6-|6-6-6-6-6-6-6-6-|
A|4-4-4-4-4-4-4-4-|4-4-4-4-4-4-4-4-|4-4-4-4-4-4-4-4-|4-4-4-4-4-4-4-4-|
E|----------------|----------------|----------------|----------------|

e|4-4-4-4-4-4-4-4-|4-4-4-4-4-4-4-4-|
B|5-5-5-5-5-5-5-5-|5-5-5-5-5-5-5-5-|
G|6-6-6-6-6-6-6-6-|6-6-6-6-6-6-6-6-|
D|6-6-6-6-6-6-6-6-|6-6-6-6-6-6-6-6-|
A|4-4-4-4-4-4-4-4-|4-4-4-4-4-4-4-4-|
E|----------------|----------------|

[End]

Feedback and noise created by cranking effects (phaser) settings.



***********************************
| ~   Vibrato
| b   Bend
| pb  Pre-bend
***********************************

            
            
Suggest correction
Creating personal tab
Creating personal tab
You can edit any tab online and save it as your Personal.

You can edit, replace or remove any tab part or add personal notes – all changes will be seen only by you.

Personal tabs can be accessed anytime from any device, even offline.
Learn more »
Give kudos to tab author, rate the tab!
1 2 3 4 5
comments
print report bad tab
guest
You may want to rate the tab now too:
select rating
Wanna post a correction for this tab? Suggest correction