Oops, an error
Loading. Please wait.

Strawberries Tab

335 views 1 this week
2 commentsread comments
1 2 3 4 5
please rate
add to favorites
launch autoscroll
font size
0
reset
how to read this tab
guitar tuner
Autoscroll
slow
fast
+/-
esc
set tempo
stop
Help us to improve Ultimate-Guitar.com Take our survey!
×
Author
Difficulty
intermediate
-------------------------------------------------------------------------------
                             STRAWBERRIES - Asobi Sekusu
-------------------------------------------------------------------------------
Tabbed 2013-3-2                                               Updated 2015-7-11

You might have to mix the guitar leads with effects, tremolo picking and
feedback into the song, but this should get you most of the way.

Updated:
Added chords, lyrics, and corrected some parts for a much more complete tab.

Tuning: EADGBe

--Intro--
F# x8

F#  E 

--Verse--
F#     E  F#
赤い空のように
        E
ぶつまたも続く
F#        E
イチゴの畑の中にいると
  F#    E
ほら、聞こえに

--Chorus--
E
大きな声で呼んで
E
忘れないでと叫ぶ

--Bridge--
B  (optional slide to open E and back)

--Verse--
F#                 E
Now they are 増えていく
F#       E
うるさいイチゴたち
F#           E
またイチゴの畑の中にいると
  F#    E
ほら、聞こえに

--Chorus--
E
大きな声で呼んで
E
忘れないでと叫ぶ

--Bridge--
B

--Ending-- (mix of power chords and major barre chords, possibly avoid playing G# major)
B A G# G   
B A G# F#
B A G# G
B A G# F#
B A G# G
B A G# F#

B


Intro
          x8
e|--2-2-2-|
B|---2-2--|
G|-3------|
D|--------|
A|--------|
E|--------|
          x4                x4
e|--2-2-2-|-----(0)-(0)-(0)-|-----|
B|---2-2--|----0---0---0----|-----|
G|-3------|-3b4~------------|--4~-|
D|--------|-----------------|-----|
A|--------|-----------------|-----|
E|--------|-----------------|-----|

Verse 2 fill (tremolo part panned hard left in second verse)
e|---|---|---|---|----|---|---|---|
B|-2-|-0-|-2-|-0-|-11-|-9-|-2-|-0-|
G|-3-|-1-|-3-|-1-|-11-|-9-|-3-|-1-|
D|-4-|-2-|-4-|-2-|-11-|-9-|-4-|-2-|
A|---|---|---|---|----|---|---|---|
E|---|---|---|---|----|---|---|---|

Chorus
Play each for two bars, fading out the higher octave E chord to transition to next section
e|-----|------|
B|--9--|--21--|
G|--9--|--21--|
D|--9--|--21--|
A|-----|------|
E|-----|------|

Bridge (1:21)
     *   *   *   *   *
e|---------------------------|
B|-------11--14--11--12------|
G|---13---------------~------|
D|---------------------------|
A|---------------------------|
E|---------------------------|

I can't discern between the multiple guitars for some parts of the bridge.  Improvise over F# 
Mixolydian, mainly using the first 3 strings with a lot of reverb.
e|--11--12--14--|
B|--11--12--14--|
G|--11--13------|
D|--11--13--14--|
A|--11--13--14--|
E|--11--12--14--|


************************************
| *   tremolo
| b   bend
| ~   hold
************************************
Suggest correction
Give kudos to tab author, rate the tab!
1 2 3 4 5
comments
print report bad tab
2 comments total.
0 reply
turkramazan 10 wrote on September 15 2014, 03:32 pm

please somebody to make its uke chords :( i seriously need it

0 reply
CoKane311 173 wrote on July 11 2015, 02:59 am

Added chords

guest
You may want to rate the tab now too:
select rating
Please do not post tabs as comments. Select "correction" instead!