Oops, an error
Loading. Please wait.

Blue Movie Bass Tab

400 views 3 this week
no commentswrite comment
1 2 3 4 5
please rate
add to favorites
launch autoscroll
font size
0
reset
guitar tuner
Autoscroll
slow
fast
+/-
esc
set tempo
stop
Help us to improve Ultimate-Guitar.com Take our survey!
×
Author
Difficulty
intermediate
Artist:Asphalt Ballet
Song:Blue Movie
Album:Asphalt Ballet
Bassist:Terry Phillips
Tabber:Dev Fuld

This is one of my all time favorite songs, by one of my all time favorite bands, 
off one of my all time favorite albums.

Key:
* = let it ring

Intro
G:-------------------------------------------------------------------------------|
D:-------------------------------------------------------------------------------|
A:----------3--2-0----------------------------------3--2-0-----------------------|
E:2--5*--2---------0-2--5*--2--0--0-0-0-1-2--5*--2---------0-2--5*--2--0--0-0-0-1|

Verse 1
G:------------------------------------------------------------|
D:------------------------------------------------------------|
A:----------3--2-0----------------------------------3--2-0----|
E:2--5*--2---------0-2--5*--2--0--0-0-0-1-2--5*--2---------0-2|

G:-------------------------------------------------------|
D:-------------------------------------------------------|
A:------------------3--2-0-------------------------------|
E:2-22-2-5-55-2--22--------0-2-22-2-5-55-2--22-0--0-0-0-1|


G:-------------------------------------------------------|
D:-------------------------------------------------------|
A:------------------3--2-0-------------------------------|
E:2-22-2-5-55-2--22--------0-2-22-2-5-55-2--22-0--0-0-0-1|

Verse 2
G:-------------------------------------------------------------------------------|
D:-------------------------------------------------------------------------------|
A:----------3--2-0----------------------------------3--2-0-----------------------|
E:2--5*--2---------0-2--5*--2--0--0-0-0-1-2--5*--2---------0-2--5*--2--0--0-0-0-1|

Pre-Chorus
G:-------------------------------------------------------------------------------|
D:-------------------------------------------------------------------------------|
A:-------------------------------------------------------------------------------|
E:2-22-22-22-22-22-22-22-22-22-22-22-22-22-22-22-22-22-22-22-22-22-22-22-22-22-22|

G:----------------|
D:----------------|
A:----------------|
E:22-22-22-22-22-2|

Chorus 1
G:--------------|--------------|
D:--------------|--------------|
A:----5*------4*|----5*------4*|
E:2*------7*----|2*------7*----|

After Chorus
G:-----------------------------------------|
D:-----------------------------------------|
A:----------3--2-0-------------------------|
E:2--5*--2---------0-2--5*--2--0--0-0-0-1-2|

Verse 3
G:----------------------------------------------------------------------------|
D:----------------------------------------------------------------------------|
A:-------3--2-0----------------------------------3--2-0-----------------------|
E:5*--2---------0-2--5*--2--0--0-0-0-1-2--5*--2---------0-2--5*--2--0--0-0-0-1|

Pre-Chorus

Chorus 2
G:--------------|--------------|--------------|--------------|
D:--------------|--------------|--------------|--------------|
A:----5*------4*|----5*------4*|----5*------4*|----5*------4*|
E:2*------7*----|2*------7*----|2*------7*----|2*------7*----|

After Chorus 2/Pre-Solo
G:-------------------------------------------------------|
D:-------------------------------------------------------|
A:------------------3--2-0-------------------------------|
E:2-22-2-5-55-2--22--------0-2-22-2-5-55-2--22-0--0-0-0-1|


G:-------------------------------------------------------|
D:-------------------------------------------------------|
A:------------------3--2-0-------------------------------|
E:2-22-2-5-55-2--22--------0-2-22-2-5-55-2--22-0--0-0-0-1|

Solo
G:-----------------------------------|-----------------------------------|
D:-----------------------------------|-----------------------------------|
A:---------5*-5-5-5----------4*-4-4-4|---------5*-5-5-5----------4*-4-4-4|
E:2*-2-2-2----------7*-7-7-7---------|2*-2-2-2----------7*-7-7-7---------|

Chorus 2

End
G:-------------------------------------------------------|
D:-------------------------------------------------------|
A:------------------3--2-0-------------------------------|
E:2-22-2-5-55-2--22--------0-2-22-2-5-55-2--22-0--0-0-0-1|


G:-----------------------------------------|
D:-----------------------------------------|
A:------------------3--2-0-----------------|
E:2-22-2-5-55-2--22--------0-2-22-2-5-55-2*|

That's it. Excellent song, really rocks. Be sure to put some attitude into 
it. I already put it in order for you. Any questions or comments, e-mail me 
at rocklvson@yahoo.com
Suggest correction
Give kudos to tab author, rate the tab!
1 2 3 4 5
comments
print report bad tab
guest
You may want to rate the tab now too:
select rating
Wanna post a correction for this tab? Suggest correction