Oops, an error
Loading. Please wait.

Hells Kitchen Bass Tab

version 1
version 1

Whole song

Interactive

552 views 3 this week
no commentswrite comment
1 2 3 4 5
3 more votes to show rating
add to favorites
launch autoscroll
font size
0
reset
guitar tuner
Autoscroll
slow
fast
+/-
esc
set tempo
stop
Help us to improve Ultimate-Guitar.com Take our survey!
×
Author
Difficulty
intermediate
Artist:Asphalt Ballet
Song:Hell's Kitchen
Album:Asphalt Ballet
Bassist:Terry Phillips
Tabber:Dev Fuld

This is one of the bands that got me into metal. When I heard this song, I was 
amazed. It's an awesome song, sadly, the band is fairly unknown. So do yourself 
a favor, and listen to something by Asphalt Ballet.

Key:
x = times a number
* = let it ring

Intro
G:---------------|---------|---------------|---------|
D:---------------|---------|---------------|---------|
A:---------------|---------|---------------|---------|
E:000-3-3-6-6-5-3|000-3-3-5|000-3-3-6-6-5-3|000-3-3-5|

After Intro/After Chorus
G:-------------|-------------|-------------|-------------|
D:3------------|3---------3--|3------------|3---------3--|
A:--5-5-3-3-5-5|--5-5-3-3---5|--5-5-3-3-5-5|--5-5-3-3---5|
E:-------------|-------------|-------------|-------------|

Verse
G:-----------------------|-----------------------|
D:-----------------------|-----------------------|
A:5-7x7-5-7x7------------|5-7x7-5-7x7------------|
E:------------3-5-5-3-0-0|------------3-5-5-3-0-0|

G:-----------------------|-----------------------|
D:-----------------------|-----------------------|
A:5-7x7-5-7x7------------|5-7x7-5-7x7------------|
E:------------3-5-5-3-0-0|------------3-5-5-3-0-0|

Pre-Chorus
G:------------|
D:------------|
A:3*--2*-0*---|
E:----------3*|

Chorus = Intro x2

After Chorus

Verse

Pre-Chorus

Chorus 

After Chorus

Solo = Chorus

Half of Verse

Pre-Chorus

Chorus

End
G:---------------|---------------|---------------|----------|
D:---------------|---------------|---------------|----------|
A:---------------|---------------|---------------|----------|
E:000-3-3-6-6-5-3|000-3-3-6-6-5-3|000-3-3-6-6-5-3|0-0-00-3-0|

That's it. Awesome song. Timing may not be completely accurate, but it gets 
the job done. I've already put it in order. Any comments or questions, e-mail 
me at rocklvson@yahoo.com
Suggest correction
Give kudos to tab author, rate the tab!
1 2 3 4 5
comments
print report bad tab
guest
You may want to rate the tab now too:
select rating
Wanna post a correction for this tab? Suggest correction