Oops, an error
Loading. Please wait.

In Our Eyes Bass

114 views 1 this week
no commentswrite comment
1 2 3 4 5
3 more votes to show rating
add to favorites
×
Save as Personal and add changes to this tab that will be seen only by you. Learn more ›
×
You can save this tab as Personal to edit and correct it or add notes. All changes will be seen only by you. Learn more »
save as personal
new!
launch autoscroll
font size
0
reset
guitar tuner
Autoscroll
slow
fast
+/-
esc
set tempo
stop
Author
This tab is 100% correct, just listin to get the timing.


Verse
G:-------------------------------------------/
D:------------------------------------------/
A:--0-4-5-7--6-7-9--7-6-7-6-7-6-4----------/
E:----------7----------------------------7/

Chorse
G:-------------------------------------------------------------------/
D:-------6-7-9-----------------------------------------9-7-6---------/
A:-777--------------6-7-9----4-5-7-----6-7-9--7--------------9-7-6---/
E:-------------777---------5---------7-----------------------------9/

PLEASE RATE!
Suggest correction
Give kudos to tab author, rate the tab!
1 2 3 4 5
comments
print report bad tab
guest
You may want to rate the tab now too:
select rating
Wanna post a correction for this tab? Suggest correction