Oops, an error
Loading. Please wait.

El Peaje Mas Caro Del Mundo tab

by Asspera
13 views 3 this week
no commentswrite comment
1 2 3 4 5
3 more votes to show rating
add to favorites
×
Save as Personal and add changes to this tab that will be seen only by you. Learn more ›
×
You can save this tab as Personal to edit and correct it or add notes. All changes will be seen only by you. Learn more »
launch autoscroll
font size
0
reset
how to read this tab
guitar tuner
edit
Autoscroll
slow
fast
+/-
esc
set tempo
stop
[Intro]
                    Pick slide                         
D#|----------------|-----------------------------------|-----------------------------------|
A#|----------------|-----------------------------------|-----------3-------3---------------|
F#|----------------|-----------------------------------|-----------2-------2---------------|
C#|----------------|-----------------------------------|-----------0-------0-----------3---|
G#|------------15\-|-14\13\12\11\10\9\8\7\6\5\4\3--0---|-L-----0-------0-------0---0---1---|
C#|------------15\-|-14\13\12\11\10\9\8\7\6\5\4\3--0---|-L-----0-------0-------0---0-------|

D#|---------------------------------|-----------------------------------|---------------------------------|
A#|---------------------------------|-----------3-------3---------------|---------------------------------|
F#|---------------------------------|-----------2-------2---------------|---------------------------------|
C#|-3---3---3-----------------------|-----------0-------0---------------|---------------------------------|
G#|-1---1---1---5---5---5---5---0---|-L-----0-------0-------0---0---8---|-8---8---8---5---5---5---5---0---|
C#|-------------5---5---5---5---0---|-L-----0-------0-------0---0---8---|-8---8---8---5---5---5---5---0---|

D#|-----------------------------------|---------------------------------|---------------------------------|
A#|-----------3-------3---------------|---------------------------------|---------------------------------|
F#|-----------2-------2---------------|---------------------------------|---------------------------------|
C#|-----------0-------0---------------|-----------------------------5---|-L---5---5---5---5---5---5---7---|
G#|-L-----0-------0-------0---0---8---|-8---8---8---5---5---5---5---3---|-L---3---3---3---3---3---3---4---|
C#|-L-----0-------0-------0---0---8---|-8---8---8---5---5---5---5-------|---------------------------------|

D#|---------------------------------|--------------------------------------|--------------------------------|
A#|---------------------------------|--------------------------------------|--------------------------------|
F#|---------------------------------|--------------------------------------|--------------------------------|
C#|-L---7---7---7---7---7---7-------|--------------------------------------|--------------------------------|
G#|-L---4---4---4---4---4---4-------|--------------------------------------|--------------------------------|
C#|-----------------------------0---|-L---0---10/12-0---10/12-0---0---7/8--|-8---8---8---5---5---5---5---0--|

D#|--------------------------------|-------------------------------|---------------------------------------|
A#|--------------------------------|-------------------------------|---------------------------------------|
F#|--------------------------------|-------------------------------|---------------------------------------|
C#|--------------------------------|-------------------------------|---------------------------------------|
G#|--------------------------------|-------------------------------|---------------------------------------|
C#|-L--0--10/12-0--10/12-0--0--7/8-|-8---8---8---5---5---5---5---0-|-L---0---10/12-0---10/12-0---0---7/8---|
 
D#|---------------------------------|---------------------------------|---------------------------------|
A#|---------------------------------|---------------------------------|---------------------------------|
F#|---------------------------------|---------------------------------|---------------------------------|
C#|-----------------------------5---|-L---5---5---5---5---5---5---7---|-L---7---7---7---7---7---7-------|
G#|-----------------------------3---|-L---3---3---3---3---3---3---4---|-L---4---4---4---4---4---4---0---|
C#|-8---8---8---5---5---5---5-------|---------------------------------|-----------------------------0---|

[Verse 1/2]
D#|-----------------------------------|-------------------------------|-----------------------------------|
A#|-------3---------------------------|-------------------------------|-------3---------------------------|
F#|-------2---------------------------|-------------------------------|-------2---------------------------|
C#|-------0---------------------------|-------------------------------|-------0---------------------------|
G#|-L---------0---0---0---0---0---0---|-0---0---0---7/8---8---8---0---|-L---------0---0---0---0---0---0---|
C#|-L---------0---0---0---0---0---0---|-0---0---0---7/8---8---8---0---|-L---------0---0---0---0---0---0---|
PM            -----------------------------------                                 ---------------------

D#|-------------------------------|----------------------------------|-------------------------------|
A#|-------------------------------|------3---------------------------|-------------------------------|
F#|-------------------------------|------2---------------------------|-------------------------------|
C#|-------------------------------|------0---------------------------|-------------------------------|
G#|-0---0---0---7/8---8---8---0---|-L--------0---0---0---0---0---0---|-0---0---0---7/8---8---8---3---|
C#|-0---0---0---7/8---8---8---0---|-L--------0---0---0---0---0---0---|-0---0---0---7/8---8---8---3---|
PM  ---------                                -----------------------------------

D#|---------------------------------|---------------------------------|---------------------------------|
A#|---------------------------------|---------------------------------|-----3---------------------------|
F#|---------------------------------|-------------------------0-------|-----2---------------------------|
C#|-----------------------------3---|-L---3---3-----------3-----------|-----0---------------------------|
G#|-L---3---3---3---3---3---3---1---|-L---1---1-------1-----------0---|-L-------0---0---0---0---0---0---|
C#|-L---3---3---3---3---3---3-------|-------------1---------------0---|-L-------0---0---0---0---0---0---|
PM                                                ----------                    ---------------------

D#|-------------------------------|---------------------------------|-------------------------------|
A#|-------------------------------|-----3---------------------------|-------------------------------|
F#|-------------------------------|-----2---------------------------|-------------------------------|
C#|-------------------------------|-----0---------------------------|-------------------------------|
G#|-0---0---0---7/8---8---8---0---|-L-------0---0---0---0---0---0---|-0---0---0---7/8---8---8---0---|
C#|-0---0---0---7/8---8---8---0---|-L-------0---0---0---0---0---0---|-0---0---0---7/8---8---8---0---|
PM  ---------                               -----------------------------------

D#|---------------------------------|-------------------------------|---------------------------------|
A#|-----3---------------------------|-------------------------------|---------------------------------|
F#|-----2---------------------------|-------------------------------|---------------------------------|
C#|-----0---------------------------|-------------------------------|-----------------------------5---|
G#|-L-------0---0---0---0---0---0---|-0---0---0---7/8---8---8---3---|-L---3---3---3---3---3---3---3---|
C#|-L-------0---0---0---0---0---0---|-0---0---0---7/8---8---8---3---|-L---3---3---3---3---3---3-------|
PM          -----------------------------------

D#|---------------------------------|
A#|---------------------------------|
F#|---------------------------------|
C#|-L---5---5---5---5---5---5---3---|
G#|-L---3---3---3---3---3---3---1---|
C#|---------------------------------|

[Bridge]
D#|---------1-----------------|---------1-----------------|
A#|-------------1-------------|-------------1-------------|
F#|------------------3--------|------------------3--------|
C#|-L-------------------------|-----3-----------------5---|
G#|-L---1-----------------1---|-L---------------------3---|
C#|---------------------------|---------------------------|

D#|---------3-----------------|---------3-----------------|---------1-----------------|
A#|-------------3-------------|-------------3-------------|-------------1-------------|
F#|------------------5--------|------------------5--------|------------------3--------|
C#|-L-------------------------|-----5-----------------3---|-L-------------------------|
G#|-L---3-----------------3---|-L---------------------1---|-L---1-----------------1---|
C#|---------------------------|---------------------------|---------------------------|

D#|---------1-----------------|------------------------------|---------------------------------|
A#|-------------1---------2---|-L---2---2---2---2---3----5---|-L---5---5---5---5---5---5-------|
F#|------------------3----2---|-L---2---2---2---2---2----2---|-L---2---2---2---2---2---2-------|
C#|-----3-----------------2---|-L---2---2---2---2---2----2---|-L---2---2---2---2---2---2-------|
G#|-L---------------------0---|-L---0---0---0---0---0----0---|-L---0---0---0---0---0---0---0---|
C#|---------------------------|------------------------------|-----------------------------0---|

D#|---------------------------------|---------------------------------|---------------------------------|
A#|---------3-------3---------------|---------------------------------|---------3-------3---------------|
F#|---------2-------2---------------|---------------------------------|---------2-------2---------------|
C#|---------0-------0---------------|---------------------------------|---------0-------0---------------|
G#|-L---0-------0-------0---0---8---|-8---8---8---5---5---5---5---0---|-L---0-------0-------0---0---8---|
C#|-L---0-------0-------0---0---8---|-8---8---8---5---5---5---5---0---|-L---0-------0-------0---0---8---|

D#|---------------------------------|---------------------------------|---------------------------------|
A#|---------------------------------|---------3-------3---------------|---------------------------------|
F#|---------------------------------|---------2-------2---------------|---------------------------------|
C#|---------------------------------|---------0-------0---------------|-----------------------------5---|
G#|-8---8---8---5---5---5---5---0---|-L---0-------0-------0---0---8---|-8---8---8---5---5---5---5---3---|
C#|-8---8---8---5---5---5---5---0---|-L---0-------0-------0---0---8---|-8---8---8---5---5---5---5-------|

D#|---------------------------------|---------------------------------------------|
A#|---------------------------------|---------------------------------------------|
F#|---------------------------------|---------------------------------------------|
C#|-L---5---5---5---5---5---5---7---|-L-------------------------------------------|
G#|-L---3---3---3---3---3---3---4---|-L---X-----X-----X-----X-----X-----X-----0---|
C#|---------------------------------|-----X-----X-----X-----X-----X-----X-----0---|

[Verse 3/4]
D#|---------------------------------|-------------------------------|---------------------------------|
A#|-----3---------------------------|-------------------------------|-----3---------------------------|
F#|-----2---------------------------|-------------------------------|-----2---------------------------|
C#|-----0---------------------------|-------------------------------|-----0---------------------------|
G#|-L-------0---0---0---0---0---0---|-0---0---0---7/8---8---8---0---|-L-------0---0---0---0---0---0---|
C#|-L-------0---0---0---0---0---0---|-0---0---0---7/8---8---8---0---|-L-------0---0---0---0---0---0---|
PM          -----------------------------------                               ---------------------

D#|-------------------------------|---------------------------------|-------------------------------|
A#|-------------------------------|-----3---------------------------|-------------------------------|
F#|-------------------------------|-----2---------------------------|-------------------------------|
C#|-------------------------------|-----0---------------------------|-------------------------------|
G#|-0---0---0---7/8---8---8---0---|-L-------0---0---0---0---0---0---|-0---0---0---7/8---8---8---3---|
C#|-0---0---0---7/8---8---8---0---|-L-------0---0---0---0---0---0---|-0---0---0---7/8---8---8---3---|
PM  ---------                               -----------------------------------

D#|---------------------------------|---------------------------------|---------------------------------|
A#|---------------------------------|---------------------------------|-----3---------------------------|
F#|---------------------------------|-------------------------0-------|-----2---------------------------|
C#|-----------------------------3---|-L---3---3-----------3-----------|-----0---------------------------|
G#|-L---3---3---3---3---3---3---1---|-L---1---1-------1-----------0---|-L-------0---0---0---0---0---0---|
C#|-L---3---3---3---3---3---3-------|-------------1---------------0---|-L-------0---0---0---0---0---0---|
PM                                                ---------                     ---------------------

D#|-------------------------------|---------------------------------|-------------------------------|
A#|-------------------------------|-----3---------------------------|-------------------------------|
F#|-------------------------------|-----2---------------------------|-------------------------------|
C#|-------------------------------|-----0---------------------------|-------------------------------|
G#|-0---0---0---7/8---8---8---0---|-L-------0---0---0---0---0---0---|-0---0---0---7/8---8---8---0---|
C#|-0---0---0---7/8---8---8---0---|-L-------0---0---0---0---0---0---|-0---0---0---7/8---8---8---0---|
PM  ---------                               -----------------------------------

D#|---------------------------------|-------------------------------|---------------------------------|
A#|-----3---------------------------|-------------------------------|---------------------------------|
F#|-----2---------------------------|-------------------------------|---------------------------------|
C#|-----0---------------------------|-------------------------------|-----------------------------5---|
G#|-L-------0---0---0---0---0---0---|-0---0---0---7/8---8---8---3---|-L---3---3---3---3---3---3---3---|
C#|-L-------0---0---0---0---0---0---|-0---0---0---7/8---8---8---3---|-L---3---3---3---3---3---3-------|
PM          -----------------------------------

D#|---------------------------------|
A#|---------------------------------|
F#|---------------------------------|
C#|-L---5---5---5---5---5---5---3---|
G#|-L---3---3---3---3---3---3---1---|
C#|---------------------------------|

[Bridge]
D#|---------1-----------------|---------1-----------------|
A#|-------------1-------------|-------------1-------------|
F#|------------------3--------|------------------3--------|
C#|-L-------------------------|-----3-----------------5---|
G#|-L---1-----------------1---|-L---------------------3---|
C#|---------------------------|---------------------------|

D#|---------3-----------------|---------3-----------------|---------1-----------------|
A#|-------------3-------------|-------------3-------------|-------------1-------------|
F#|------------------5--------|------------------5--------|------------------3--------|
C#|-L-------------------------|-----5-----------------3---|-L-------------------------|
G#|-L---3-----------------3---|-L---------------------1---|-L---1-----------------1---|
C#|---------------------------|---------------------------|---------------------------|

D#|---------1-----------------|------------------------------|---------------------------------|
A#|-------------1---------2---|-L---2---2---2---2---3----5---|-L---5---5---5---5---5---5-------|
F#|------------------3----2---|-L---2---2---2---2---2----2---|-L---2---2---2---2---2---2-------|
C#|-----3-----------------2---|-L---2---2---2---2---2----2---|-L---2---2---2---2---2---2---7---|
G#|-L---------------------0---|-L---0---0---0---0---0----0---|-L---0---0---0---0---0---0---5---|
C#|---------------------------|------------------------------|-----------------------------0---|

[Chorus]
D#|---------------------------------|---------------------------------|---------------------------------|
A#|---------------------------------|---------------------------------|---------------------------------|
F#|---------------------------------|-----------------------------5---|-L---5---5---5---5---5---5-------|
C#|-L---7---7---7---7---7---7---8---|-L---8---8---8---8---8---8---5---|-L---5---5---5---5---5---5---5---|
G#|-L---5---5---5---5---5---5---5---|-L---5---5---5---5---5---5---3---|-L---3---3---3---3---3---3---5---|
C#|-L---0---0---0---0---0---0---0---|-L---0---0---0---0---0---0-------|-----------------------------5---|

D#|---------------------------------|---------------------------------|---------------------------------|
A#|---------------------------------|---------------------------------|---------------------------------|
F#|---------------------------------|---------------------------------|-----------------------------5---|
C#|-L---5---5---5---5---5---5---7---|-L---7---7---7---7---7---7---8---|-L---8---8---8---8---8---8---5---|
G#|-L---5---5---5---5---5---5---5---|-L---5---5---5---5---5---5---5---|-L---5---5---5---5---5---5---3---|
C#|-L---5---5---5---5---5---5---0---|-L---0---0---0---0---0---0---0---|-L---0---0---0---0---0---0-------|

D#|---------------------------------|---------------------------------|---------------------------------|
A#|---------------------------------|---------------------------------|---------------------------------|
F#|-L---5---5---5---5---5---5-------|---------------------------------|---------------------------------|
C#|-L---5---5---5---5---5---5---5---|-L---5---5---5---5---5---5---7---|-L---7---7---7---7---7---7---8---|
G#|-L---3---3---3---3---3---3---5---|-L---5---5---5---5---5---5---5---|-L---5---5---5---5---5---5---5---|
C#|-----------------------------5---|-L---5---5---5---5---5---5---0---|-L---0---0---0---0---0---0---0---|

D#|---------------------------------|---------------------------------|---------------------------------|
A#|---------------------------------|---------------------------------|---------------------------------|
F#|-----------------------------5---|-L---5---5---5---5---5---5-------|---------------------------------|
C#|-L---8---8---8---8---8---8---5---|-L---5---5---5---5---5---5---5---|-L---5---5---5---5---5---5---7---|
G#|-L---5---5---5---5---5---5---3---|-L---3---3---3---3---3---3---5---|-L---5---5---5---5---5---5---5---|
C#|-L---0---0---0---0---0---0-------|-----------------------------5---|-L---5---5---5---5---5---5---0---|

D#|---------------------------------|---------------------------------|---------------------------------|
A#|---------------------------------|---------------------------------|---------------------------------|
F#|---------------------------------|-----------------------------5---|-L---5---5---5---5---5---5-------|
C#|-L---7---7---7---7---7---7---8---|-L---8---8---8---8---8---8---5---|-L---5---5---5---5---5---5-------|
G#|-L---5---5---5---5---5---5---5---|-L---5---5---5---5---5---5---3---|-L---3---3---3---3---3---3---5---|
C#|-L---0---0---0---0---0---0---0---|-L---0---0---0---0---0---0-------|-----------------------------5---|

D#|---------------------------------|
A#|---------------------------------|
F#|---------------------------------|
C#|---------------------------------|
G#|-L---5---5---8---8---8---8---0---|
C#|-L---5---5---8---8---8---8---0---|

[Pre-Solo]
D#|--------------------------------------|--------------------------------|
A#|--------------------------------------|--------------------------------|
F#|--------------------------------------|--------------------------------|
C#|--------------------------------------|--------------------------------|
G#|-L------------------------------------|--------------------------------|
C#|-L---0---10/12-0---10/12-0---0---7/8--|-8---8---8---5---5---5---5---0--|

D#|---------------------------------|---------------------------------|-------------------------------------|
A#|---------------------------------|---------------------------------|-------------------------------------|
F#|---------------------------------|---------------------------------|-------------------------------------|
C#|---------------------------------|---------------------------------|-------------------------------------|
G#|---------------------------------|---------------------------------|-------------------------------------|
C#|-L--0--10/12-0--10/12-0---0--7/8-|-8---8---8---5---5---5---5---0---|-L---0---10/12-0---10/12-0---0---7/8-|

D#|---------------------------------|---------------------------------|---------------------------------|
A#|---------------------------------|---------------------------------|---------------------------------|
F#|---------------------------------|---------------------------------|---------------------------------|
C#|-----------------------------5---|-L---5---5---5---5---5---5---7---|-L---7---7---7---7---7---7-------|
G#|-----------------------------3---|-L---3---3---3---3---3---3---4---|-L---4---4---4---4---4---4---0---|
C#|-8---8---8---5---5---5---5-------|---------------------------------|-----------------------------0---|

[Solo]
D#|--------|-----------------|--------------------------|------------------|--------------------------|
A#|--------|-----------------|--------------------------|------------------|---------------9---9b10---|
F#|--------|------------9\---|-L-----7---9---10--9b10---|-L----9---7\4/9---|-L-----9---10-------------|
C#|--------|-----------------|--------------------------|------------------|--------------------------|
G#|-L------|-L------0--------|--------------------------|------------------|--------------------------|
C#|-L------|-L---------------|--------------------------|------------------|--------------------------|
                                       
D#|--------------|-----------|-------------------------------|-10p7----------------------------7--10h7-13h10-|
A#|-L-9--10b12---|-L--13b15--|-13--12--10\9--10--12--10b12---|-------9----------------------9----------------|
F#|--------------|-----------|-------------------------------|----------10p7-----------7h10------------------|
C#|--------------|-----------|-------------------------------|----------------9-----9------------------------|
G#|--------------|-----------|-------------------------------|-------------------11--------------------------|
C#|--------------|-----------|-------------------------------|-----------------------------------------------|

D#|-16p13----------13-16p13-19~---|-------20b22------|-20--19--17/16-17--19--17b19-----16-----|
A#|-------15----15----------------|------------------|-------------------------------------17-|
F#|----------16-------------------|------------------|----------------------------------------|
C#|-------------------------------|------------------|----------------------------------------|
G#|-------------------------------|------------------|----------------------------------------|
C#|-------------------------------|------------------|----------------------------------------|

D#|---------------------16-------------------------------|---------------------------------------------|
A#|-L---L--L-15h17h18------18p17p15----15----------------|---------------------------------------------|
F#|---------------------------------17----17p16-14----14-|------------------14-------------------------|
C#|------------------------------------------------18----|---18p15p14h15h18----18p15p14----------------|
G#|------------------------------------------------------|------------------------------17p15p14----14-|
C#|------------------------------------------------------|---------------------------------------------|

D#|---------------------------------------------------------|---------------------------13p-|
A#|---------------------------------------------------------|-------------------------------|
F#|---------------------------------------------------------|-------------------------------|
C#|---------------------------------------------------------|-------------------------------|
G#|-L--15p14h15---12h14p12h14---11h12p11h12---8h11p8h11---7-|-L---8p7h8----5h7p5h7-5/7------|
C#|---------------------------------------------------------|-------------------------------|

D#|-10----------10-13p10----------10-16p13----------13-16p13----------13-19-|
A#|----12----12----------12----12----------15----15----------15----15-------|
F#|-------13----------------13----------------16----------------16----------|
C#|-------------------------------------------------------------------------|
G#|-------------------------------------------------------------------------|
C#|-------------------------------------------------------------------------|

D#|-L-16----------16-19p16----------16-20b22----19b21---|
A#|------18----18----------18----18---------------------|
F#|---------19----------------19------------------------|
C#|-----------------------------------------------------|
G#|-----------------------------------------------------|
C#|-----------------------------------------------------|

D#|-L---L--L-19b21---19b21br19--L--L-|-L---L--L-17--16b17br16--L----------|------------------16-19-17b19br17-|
A#|----------------------------------|----------------------------17------|--------------17------------------|
F#|----------------------------------|--------------------------------16--|-L----L--L-16---------------------|
C#|----------------------------------|------------------------------------|----------------------------------|
G#|----------------------------------|------------------------------------|----------------------------------|
C#|----------------------------------|------------------------------------|----------------------------------|

D#|--L----L--L-17----L-|-L--L-17p16h17p16p0--14h16p14p0--12h14p12p0--11h12p11p0--12h14p12p0--14h-|
A#|--------------------|-------------------------------------------------------------------------|
F#|--------------------|-------------------------------------------------------------------------|
C#|--------------------|-------------------------------------------------------------------------|
G#|--------------------|-------------------------------------------------------------------------|
C#|--------------------|-------------------------------------------------------------------------|
                                                                      
D#|-16p14p0-12h14p12p0-11h12p11p0-9h11p9p0-11h12p11p0-12h14p12p0-11h-|
A#|------------------------------------------------------------------|
F#|------------------------------------------------------------------|
C#|------------------------------------------------------------------|
G#|------------------------------------------------------------------|
C#|------------------------------------------------------------------|
    
D#|-12p11p0-9h11p9p0-7h9p7p0-5h7p5p0-4h5p4p0-5h7p5p0-4h-|
A#|-----------------------------------------------------|
F#|-----------------------------------------------------|
C#|-----------------------------------------------------|
G#|-----------------------------------------------------|
C#|-----------------------------------------------------|

D#|-5p4p0--2h4p2p0---------0-------|-L----L--L-0---0---0---0---0---0-----|
A#|-----------------4p2p0--0-------|-L----L--L-5---5---4---4---5---2-----|
F#|--------------------------------|-------------------------------------|
C#|--------------------------------|-------------------------------------|
G#|--------------------------------|-------------------------------------|
C#|--------------------------------|-------------------------------------|

D#|-L----L--L-0---0---0---0---0---0-----|-L----L--L-0---0---0---0---0---0-----|-L---L-0---0---0-----------|
A#|-L----L--L-5---5---4---4---5---0-----|-L----L--L-5---5---4---5---7---7\----|-L---L-2---2---2-----------|
F#|-------------------------------------|-------------------------------------|---------------------------|
C#|-------------------------------------|-------------------------------------|---------------------------|
G#|-------------------------------------|-------------------------------------|---------------------------|
C#|-------------------------------------|-------------------------------------|---------------------------|

D#|--------11b12br11----9----------|--------------------------|------------------------------------------16\-|
A#|-----------------------12-------|--------------------------|-------------------------10/12---10-10-10-----|
F#|--------------------------11p9\-|-8--9p8-------------------|----------9/11--9--9--9-----------------------|
C#|--------------------------------|---------9----------------|-7--7--7--------------------------------------|
G#|--------------------------------|------------9\7--6h7/9----|----------------------------------------------|
C#|--------------------------------|--------------------------|----------------------------------------------|

D#|-L---16b17br16---14--17-|-L----L--15b17br15-|-L---13----13------13--------|--------------13-15--13b15br13-|
A#|------------------------|-------------------|--------15----15-------15b17-|-L---L-----15------------------|
F#|------------------------|-------------------|-----------------------------|--------14---------------------|
C#|------------------------|-------------------|-----------------------------|-------------------------------|
G#|------------------------|-------------------|-----------------------------|-------------------------------|
C#|------------------------|-------------------|-----------------------------|-------------------------------|

D#|-L----13--------|-------------------------------------------------------------|
A#|----------------|-------------------------------------------------------------|
F#|----------------|------13h14h17p14p13-14h17p14p13-14h17p14p13-14h17p14p13-14h-|
C#|----------------|-------------------------------------------------------------|
G#|----------------|-------------------------------------------------------------|
C#|----------------|-------------------------------------------------------------|

D#|-------------------------16h17h20-----20b22----|------12b13---12b13---12--10--|-------9---10--12--10--|
A#|----------------15h18h20-----------------------|------------------------------|-10--------------------|
F#|-17p14p13h14h17--------------------------------|------------------------------|-----------------------|
C#|-----------------------------------------------|------------------------------|-----------------------|
G#|-----------------------------------------------|------------------------------|-----------------------|
C#|-----------------------------------------------|------------------------------|-----------------------|

[Chorus]
D#|-L---------------------------|---------------------------------|---------------------------------|
A#|-----------------------------|---------------------------------|---------------------------------|
F#|-----------------------------|-----------------------------5---|-L---5---5---5---5---5---5-------|
C#|-----7---7---7---7---7---8---|-L---8---8---8---8---8---8---5---|-L---5---5---5---5---5---5---5---|
G#|-----5---5---5---5---5---5---|-L---5---5---5---5---5---5---3---|-L---3---3---3---3---3---3---5---|
C#|-----0---0---0---0---0---0---|-L---0---0---0---0---0---0-------|-----------------------------5---|

D#|---------------------------------|---------------------------------|---------------------------------|
A#|---------------------------------|---------------------------------|---------------------------------|
F#|---------------------------------|---------------------------------|-----------------------------5---|
C#|-L---5---5---5---5---5---5---7---|-L---7---7---7---7---7---7---8---|-L---8---8---8---8---8---8---5---|
G#|-L---5---5---5---5---5---5---5---|-L---5---5---5---5---5---5---5---|-L---5---5---5---5---5---5---3---|
C#|-L---5---5---5---5---5---5---0---|-L---0---0---0---0---0---0---0---|-L---0---0---0---0---0---0-------|

D#|---------------------------------|---------------------------------|---------------------------------|
A#|---------------------------------|---------------------------------|---------------------------------|
F#|-L---5---5---5---5---5---5-------|---------------------------------|---------------------------------|
C#|-L---5---5---5---5---5---5---5---|-L---5---5---5---5---5---5---7---|-L---7---7---7---7---7---7---8---|
G#|-L---3---3---3---3---3---3---5---|-L---5---5---5---5---5---5---5---|-L---5---5---5---5---5---5---5---|
C#|-----------------------------5---|-L---5---5---5---5---5---5---0---|-L---0---0---0---0---0---0---0---|

D#|---------------------------------|---------------------------------|---------------------------------|
A#|---------------------------------|---------------------------------|---------------------------------|
F#|-----------------------------5---|-L---5---5---5---5---5---5-------|---------------------------------|
C#|-L---8---8---8---8---8---8---5---|-L---5---5---5---5---5---5---5---|-L---5---5---5---5---5---5---7---|
G#|-L---5---5---5---5---5---5---3---|-L---3---3---3---3---3---3---5---|-L---5---5---5---5---5---5---5---|
C#|-L---0---0---0---0---0---0-------|-----------------------------5---|-L---5---5---5---5---5---5---0---|

D#|---------------------------------|---------------------------------|---------------------------------|
A#|---------------------------------|---------------------------------|---------------------------------|
F#|---------------------------------|-----------------------------5---|-L---5---5---5---5---5---5-------|
C#|-L---7---7---7---7---7---7---8---|-L---8---8---8---8---8---8---5---|-L---5---5---5---5---5---5---5---|
G#|-L---5---5---5---5---5---5---5---|-L---5---5---5---5---5---5---3---|-L---3---3---3---3---3---3---5---|
C#|-L---0---0---0---0---0---0---0---|-L---0---0---0---0---0---0-------|-----------------------------5---|

D#|---------------------------------|-------------------------------------|---------------------------------|
A#|---------------------------------|-------------------------------------|---------------------------------|
F#|---------------------------------|-------------------------------------|---------------------------------|
C#|-L-------------------------------|-------------------------------------|---------------------------------|
G#|-L---5---5---8---8---8---8-------|---------------------------------8---|-8---8---8---5---5---5---5-------|
C#|-L---5---5---8---8---8---8---0---|-L---0---10/12-0---10/12-0---0---8---|-8---8---8---5---5---5---5---0---|

[Outro]
D#|------------------------------------|--------------------------------|------------------------------------|
A#|------------------------------------|--------------------------------|------------------------------------|
F#|------------------------------------|--------------------------------|------------------------------------|
C#|------------------------------------|--------------------------------|------------------------------------|
G#|---------------------------------8--|-8---8---8---5---5---5---5------|---------------------------------8--|
C#|-L---0---10/12-0---10/12-0---0---8--|-8---8---8---5---5---5---5---0--|-L---0---10/12-0---10/12-0---0---8--|

D#|---------------------------------|-------------------------------------|---------------------------------|
A#|---------------------------------|-------------------------------------|---------------------------------|
F#|---------------------------------|-------------------------------------|---------------------------------|
C#|---------------------------------|-------------------------------------|---------------------------------|
G#|-8---8---8---5---5---5---5-------|---------------------------------8---|-8---8---8---5---5---5---5---0---|
C#|-8---8---8---5---5---5---5---0---|-L---0---10/12-0---10/12-0---0---8---|-8---8---8---5---5---5---5---0---|

D#|---------------------|
A#|---------------------|
F#|---------------------|
C#|---------------------|
G#|-0-------------------|
C#|-0-------------------|


***********************************

| PM  Palm-Muting
| L   Tied Note
| /   Slide up
| \   Slide down
| h   Hammer-on
| p   Pull-off
| ~   Vibrato
| x   Dead note
| b   Bend
| br  Bend release

***********************************

            
            
Suggest correction
Creating personal tab
Creating personal tab
You can edit any tab online and save it as your Personal.

You can edit, replace or remove any tab part or add personal notes – all changes will be seen only by you.

Personal tabs can be accessed anytime from any device, even offline.
Learn more »
Give kudos to tab author, rate the tab!
1 2 3 4 5
comments
print report bad tab
guest
You may want to rate the tab now too:
select rating
Wanna post a correction for this tab? Suggest correction