Oops, an error
Loading. Please wait.

Ab Bna Och Be Bass Tab

1,028 views 1 this week
no commentswrite comment
1 2 3 4 5
please rate
add to favorites
launch autoscroll
font size
0
reset
guitar tuner
Autoscroll
slow
fast
+/-
esc
set tempo
stop
Help us to improve Ultimate-Guitar.com Take our survey!
×
Author
Difficulty
novice
|========================|
|=======ASTA=KASK========|
|======AB=BÖNA=&=BE======|
|========================|

    

   1   |---Intro--|
   2   |--Prelude-|
   3   |---Verse--|
   4  =|==Chorus==|=
   5   |Interlude-|
   6   |--Prelude-|
   7   |---Verse--|
   8  =|==Chorus==|=
   9   |---Outro--|


1 |=======INTRO========|

G|----------------|
D|----------------|
A|----------------|
E|5-5-5-5-5-------|


2|=====Prelude====|

G|----------------|
D|----------------|
A|----77-7----44-4|
E|55-5----44-4----| 2x


3|=====Verse======|
  
  "I Kyrkopalats utav silver och guld..."

 |=======4x=======|

G|----------------|----------------|
D|----------------|----------------|
A|----77-7----44-4|----------------|
E|55-5----44-4----|77-777-777-777-7|


  "Biskopar är finansmän, med upp-o-ned-vända kors..."

 |=======4x=======|

G|----------------|----------------|
D|----------------|----------------|
A|----77-7----44-4|----------------|
E|55-5----44-4----|7777777777777---|


4 |======Chorus======|

  "Aktiebolaget Böna & Be, ta inget, bara ge till..."

G|----------------|----------------|
D|----------------|----------------|
A|7-7-7-7---------|---4--7----6--9-|
E|--------7-7-7-7-|5-------7-------| 4x


5|====Interlude===|

 |===============2x================|
G|----------------|----------------|----------------|
D|----------------|----------------|----------------|
A|7-7-7-7-6-6-6-6-|----------------|----------------|
E|----------------|9-9-9-9-7-7-7-7-|7-7-7-77-7------|


b6|======Interlude=====|
7 |========Verse=======|

  "Feta små tanter, med äkta päls..."

  "så kräv inte av oss att tro på er gud..."

8|=====Chorus=====|
9|======Outro=====|2x==============|
G|----------------|----------------|----------------|-------------|---
D|----------------|----------------|----------------|-------------|---
A|7-7-7-7-6-6-6-6-|----------------|----------------|--------7----|77-
E|----------------|9-9-9-9-7-7-7-7-|7-7-7-777-7-7-77|7-7-7-77-----|---
Suggest correction
Give kudos to tab author, rate the tab!
1 2 3 4 5
comments
print report bad tab
guest
You may want to rate the tab now too:
select rating
Wanna post a correction for this tab? Suggest correction