Oops, an error
Loading. Please wait.

Psykopaten Tab

824 views 3 this week
no commentswrite comment
1 2 3 4 5
please rate
add to favorites
launch autoscroll
font size
0
reset
how to read this tab
guitar tuner
Autoscroll
slow
fast
+/-
esc
set tempo
stop
Help us to improve Ultimate-Guitar.com Take our survey!
×
Author
Difficulty
Vaeris 40
novice
Asta Kask: Psykopaten. From "Live från andra sidan"

The whole song is made up from the chords  Bm;A;A;Bm

Figure 1: Guitar

Bm                   A                 A                  Bm
|--------0-2p0-------|----------0------|----------0-------|---------0-2p0------|
|------3-------3-----|------2------2---|------2-------2---|------3--------3----|
|----4-----------4---|----2---2------2-|----2---2-------2-|----4------------4--|
|--4---------------4-|--2---------2----|--2---------2—----|--4----------------4|
|--------------------|-----------------|------------------|--------------------|
|--------------------|-----------------|------------------|--------------------|


Figure 2: Guitar "Solo"
Bm          A      A      Bm       Bm         A     A      Bm
|-----------------------------------|------------------------------------|
|------7----------------------------|------------------------------------|
|--------9-7-6----------------------|------------------------------------|
|--9-9---------7-------7---7-9------|--------4-2-------2---2---2---------|
|----------------7---7---7----------|-9\2--2-----5-4---------0---0-2-----|
|-----------------------------------|----------------5-------------------|
Bm           A       A       Bm         Bm         A       A       Bm
|-----------------------------------|------------------------------------|
|------7----------------------------|------------------------------------|
|--------9-7-6---9---9---9----------|------------------------------------|
|2/9-9---------7-------7---7-9------|--------4-2-------------------------|
|-----------------------------------|-9\2--2-----5-4---------0---0-2-----|
|-----------------------------------|----------------5-0---0---0---------|


Figure 3: Bass fig. (This is tabed for Bass): 
Bm               A            A           Bm    
|--11--11-11-9-7-9----------|-9--9-9-7---------------|
|------------------11-11----|----------11-9-7-9--9-9-|
|---------------------------|------------------------|
|---------------------------|------------------------|

   Bm            A            A           Bm
|9/11--11-11-9-7-9----------|-9--9-9-7---------------|
|------------------11-11----|----------11-9-7-9------|
|---------------------------|------------------------|
|---------------------------|------------------------|

Over to guitar again.
Break:
|------------|------------|------------|-----------|
|------------|------------|------------|-----------|
|------------|------------|------------|-----------|
|--9-9-9-9-9-|--7-7-7-7-7-|--7-7-7-7-7-|--9------7-|   X2
|--9-9-9-9-9-|--7-7-7-7-7-|--7-7-7-7-7-|--9------7-|
|--7-7-7-7-7-|--5-5-5-5-5-|--5-5-5-5-5-|--7------5-|


|-----------------|
|-----------------|
|-----------------|
|--9-9-9-9-9-9-9-9|   X2
|--9-9-9-9-9-9-9-9|
|--7-7-7-7-7-7-7-7|





Intro is played like this: 
Figure 1 X2
Figur 1  X2 together with Bass fig
Figur 1 X1. Gtr 2 marks the chords.

Verse 1: Figur 1X2 
     Bm                    A
Jag minns dina ögon dina klarblåa ögon
     A                         Bm
Din blick den mötte min jag va din du va min
     Bm                    A 
Inga ord behövde sägas vi visste det ändå
 A                      Bm
Vid min sida skulle du härifrån gå


Figur 1 X2 together with Bass fig
Figur 1 alone


Verse 2: Fig 1 X2.
    Bm              A  
Jag la mina händer på din hals
      A      Bm
Jag kramade hårt
      Bm                     A
Jag knäckte dina armar jag knäckte dina ben
      A                          Bm          
Jag krossade din skalle med en sten


Bridge(Play chords):
     Bm                            A
Jag tog din blodiga kropp och jag hängde den i ett träd
A                      Bm
Alla skulle få se hur vacker du är


Bass plays half Bass fig

Figure 2: Guitar "Solo"

Figure 1  X2 together with Bass fig


Verse 3: Figure 1 X2
Bm               A
Nu står jag här, ensam igen
 A                             Bm
Tänker på den dag då jag får träffa dig igen
   Bm                    A
Du är på ett ställe där många andra är
 A                 Bm
Som fått känna på mitt begär

Bridge:
     Bm                      A
Jag får inte ge upp nej jag måste vara stark
     A                        Bm
Jag tänker på den dag då jag får en ny vän


Bass plays half Bass fig

Break

Figure 2: Guitar "Solo"

Bass plays half Bass fig
Suggest correction new What's this?
You can suggest a correction to this tab. Community and Mods will review your correction and vote to approve or reject it.
comments
We did not receive enough feedback on this tab! Please rate:
print report bad tab
1 2 3 4 5
guest
You may want to rate the tab now too:
select rating
Please do not post tabs as comments. Select "correction" instead!