Oops, an error
Loading. Please wait.

Sanctum Of Torment tab

31 views 1 this week
no commentswrite comment
1 2 3 4 5
3 more votes to show rating
add to favorites
×
Save as Personal and add changes to this tab that will be seen only by you. Learn more ›
×
You can save this tab as Personal to edit and correct it or add notes. All changes will be seen only by you. Learn more »
launch autoscroll
font size
0
reset
how to read this tab
guitar tuner
edit
Autoscroll
slow
fast
+/-
esc
set tempo
stop
[PART 1]

[Intro: Tapping Lick]

4/4

e|------------------------------------|---------------------------------------|
B|------------------------------------|---------------------------------------|
G|------------------------------------|---------------------------------------|
D|------------------------------------|---------------------------------------|
A|12-5h8p5-12-5h8p5-12-5h8p5-12-5h8p5-|12-5h8p5-12-5h8p5-12-5h8p5-12-5h8p5----|
D|------------------------------------|---------------------------------------|

e|------------------------------------|---------------------------------------|
B|------------------------------------|---------------------------------------|
G|------------------------------------|---------------------------------------|
D|------------------------------------|---------------------------------------|
A|13-5h8p5-13-5h8p5-13-5h8p5-13-5h8p5-|15-7h10p7-15-7h10p7-15-7h10p7-15-7h10p7|
D|------------------------------------|---------------------------------------|

e|------------------------------------|---------------------------------------|
B|------------------------------------|---------------------------------------| (X4)
G|------------------------------------|---------------------------------------|
D|------------------------------------|---------------------------------------|
A|15-3h7p3-15-3h7p3-15-3h7p3-15-3h7p3-|12p7-13p7-12p7-13p7-12p8-13p8-12p8-13p8|
D|------------------------------------|---------------------------------------|


[Tranisition lick into Verse]

6/8 or 3 counts of 4 which make 12 beats anyways.

e|--------------------------------------------------|
B|--------------------------------------------------|
G|--------------------------------------------------|
D|--------------------------------------------------|
A|10-10-8-8-7-7-5-5-8-8-7-7-5-5-4-4-7-7-5-5-4-4-5-5-|
D|--------------------------------------------------|


[Verse 1&2: Triplet Feel]

4/4

e|------------------------|------------------------|---------------------------|
B|------------------------|------------------------|---------------------------|
G|------------------------|------------------------|---------------------------|
D|------------------------|------------------------|---------------------------|
A|------1-----------1-----|------1-----------1-----|------0-----------0--------|
D|0-2-3---3-2-0-2-3---3-2-|0-2-3---3-2-0-2-3---3-2-|0-2-3---3-2-0-2-3---3-2----|

e|------------------------|------------------------|---------------------------|
B|------------------------|------------------------|---------------------------|
G|------------------------|------------------------|---------------------------|
D|------------------------|------------------------|---------------------------|
A|------1-----------0-----|------1-----------1-----|------1-----------1--------|
D|0-2-3---3-2-0-2-3---3-2-|0-2-3---3-2-0-2-3---3-2-|0-2-3---3-2-0-2-3---3-2----|

e|------------------------|------------------------|
B|------------------------|------------------------|
G|------------------------|------------------------|
D|------------------------|------------------------|
A|------0-----------0-----|------3-----------5-----|
D|0-2-3---3-2-0-2-3---3-2-|0-2-3---3-2-0-2-3---3-2-|


[Chorus: Octave Chords, Triplet Feel]

4/4

e|-------------------------|---------------------------|
B|-------------------------|---------------------------|
G|7/8--8-8-8-8--8-8-8-8-8-8|8-8-8-8-8-8--8-8-8--8/10-10|
D|-------------------------|---------------------------|
A|5/6--6-6-6-6--6-6-6-6-6-6|6-6-6-6-6-6--6-6-6--6/8--8-|
D|-------------------------|---------------------------|

e|--------------------------|----------------------------------|
B|--------------------------|----------------------------------|
G|10\7--7-7-7-7--7-7-7-7-7-7|17-17-17-17-17-17--15-15-15--7-7-7|
D|--------------------------|----------------------------------|
A|8-\5--5-5-5-5--5-5-5-5-5-5|15-15-15-15-15-15--13-13-13--5-5-5|
В|--------------------------|----------------------------------|


e|-------------------------|---------------------------|
B|-------------------------|---------------------------|
G|7/8--8-8-8-8--8-8-8-8-8-8|8-8-8-8-8-8--8-8-8--8/10-10|
D|-------------------------|---------------------------|
A|5/6--6-6-6-6--6-6-6-6-6-6|6-6-6-6-6-6--6-6-6--6/8--8-|
D|-------------------------|---------------------------|
                                                                   x2  both                  
e|--------------------------|-------------------------------------|
B|--------------------------|-------------------------------------|  
G|10\7--7-7-7-7--7-7-7-7-7-7|17-17-17-17-17-17--17/19--19-19-19-19|
D|--------------------------|-------------------------------------|
A|8-\5--5-5-5-5--5-5-5-5-5-5|15-15-15-15-15-15--15/17--17-17-17-17|
E|--------------------------|-------------------------------------|


[PART 2]

Chords with some tapping
4/4

e|----------------|------------------|-----------------|------------------------|
B|----------------|------------------|-----------------|------------------------|
G|----------------|------------------|-----------------|------------------------|  (X2)
D|----------------|------------------|-----------------|------------------------|
A|0---------------|----------------5/|1----------------|----------------------3-|
D|0---------------|----------------5/|1----------------|----------------------3-|


[Heavy riffing]
4/4

e|--------------|------------------|--------------|-----------------------------|
B|--------------|------------------|--------------|-----------------------------|
G|--------------|------------------|--------------|-----------------------------| (X4)
D|--------------|----------------0-|--------------|-----------------------------|
A|0-------------|3-5-3h5p3/1-3-1---|1-------------|0-1-0h1p0---0----------------|
D|0-0-0-0-0-0-0-|----------------0-|1-1-1-1-1-1-1-|----------5---5-3-1----------|


[Tapping lick]

(Low Harm)
4/4

e|------------------------------------|---------------------------------------|
B|------------------------------------|---------------------------------------|
G|------------------------------------|---------------------------------------|
D|------------------------------------|---------------------------------------|
A|------------------------------------|---------------------------------------|
D|12-5h7h8-12-8p7p5-12-5h7h8p7p5-12-5-|12-5h7h8-12-8p7p5-12-5h7h8p7p5-12-5----|

e|------------------------------------|---------------------------------------|
B|------------------------------------|---------------------------------------|
G|------------------------------------|---------------------------------------|
D|------------------------------------|---------------------------------------| (X2)
A|------------------------------------|---------------------------------------|
D|13-5h7h8-13-8p7p5-13-5h7h8p7p5-13-5-|13-5h7h8-13-8p7p5-13-5h7h8p7p5-13-5----|


back to:

[Heavy Riffing]
4/4

e|--------------|------------------|--------------|---------------------------|
B|--------------|------------------|--------------|---------------------------|
G|--------------|------------------|--------------|---------------------------| 
D|--------------|----------------0-|--------------|---------------------------|
A|0-------------|3-5-3h5p3/1-3-1---|1-------------|0-1-0h1p0---0--------------|
D|0-0-0-0-0-0-0-|----------------0-|1-1-1-1-1-1-1-|----------5---5-3-1--------|

e|--------------|------------------|--------------|---------------------------|
B|--------------|------------------|--------------|---------------------------|
G|--------------|------------------|--------------|---------------------------| 
D|--------------|----------------0-|--------------|---------------------------|
A|0-------------|3-5-3h5p3/1-3-1---|1-------------|0-1-0h1p0---0--------------|
D|0-0-0-0-0-0-0-|----------------0-|1-1-1-1-1-1-1-|----------5---5-3-0--------|


[PART 3]

[Headbanging Riff]
4/4

e|-------------------------------|------------------------|------------------------|
B|-------------------------------|------------------------|------------------------|
G|-------------------------------|------------------------|------------------------|
D|-------------------------------|------------------------|------------------------|
A|-------------------------------|------------------------|------------------------|
D|1-1-1-1-1-1-1-1-1-1-1-1-1-1-1-1|1-1-1-1-1-1-1-1-1-1-1-1-|3-3-3-3-|0-0-0-0-0-0-0-0|

e|--------------------------------------------------------|
B|--------------------------------------------------------|
G|--------------------------------------------------------| (X2)
D|--------------------------------------------------------|
A|--------------------------------------------------------|
D|0-0-0-0-0-0-0-0-10-10-10-10-10-10-10-10-8-8-8-8-0-0-0-0-|

Low Harm played a few times
4/4
  
e|-------------------------------|--------------------------------|------------------|
B|-------------------------------|--------------------------------|------------------|
G|-------------------------------|--------------------------------|------------------|
D|-------------------------------|--------------------------------|------------------|
A|-------------------------------|--------------------------------|------------------|
D|0h1-1-1-1-1-1-1-1-1-1-1-1-1-1-1|1-1-1-1-1-1-1-1-1-1-1-1-1h3-3-3-|3p0-0-0-0-0-0-0-0-|

e|----------------|----------------------------------------|
B|----------------|----------------------------------------|
G|----------------|----------------------------------------|
D|----------------|----------------------------------------|
A|----------------|----------------------------------------|
D|0-0-0-0-0-0-0-0-|10-10-10-10-10-10-10-10-8-8-8-8-0-0-0-0-|


e|-------------------------------|--------------------------------|-------------|
B|-------------------------------|--------------------------------|-------------|
G|-------------------------------|--------------------------------|-------------|
D|-------------------------------|--------------------------------|-------------|
A|-------------------------------|--------------------------------|3h5-5-5-5-5--|
D|0h1-1-1-1-1-1-1-1-1-1-1-1-1-1-1|1-1-1-1-1-1-1-1-1-1-1-1-1h3-3-3-|-------------|


e|--------------------|--------------------------------|
B|--------------------|--------------------------------|
G|--------------------|--------------------------------| (X4)
D|--------------------|--------------------------------|
A|5-5-5-5-5-5-5-5-5-5-|5p3-3-3-3-3-3-3-1p3-3-3---------|
D|--------------------|------------------------0-0-0-0-|


[PART 4]

[Black Metal Mayhem]

Chords from hell
4/4

e|----------|----------|
B|----------|----------|
G|----------|----------|
D|7----8----|7----4----|(X2)
A|5----5----|4----4----|
D|5----5----|4----4----|

Tremolo Low Harm
4/4
(32nd notes)

e|-----------------------|
B|-----------------------|
G|-----------------------|
D|7-8-7-7h8p7------------| (X4)
A|------------10-9-------|
D|-----------------------|

Chords from hell again
4/4

e|--------------------------------|--------------------------------|
B|--------------------------------|--------------------------------|
G|--------------------------------|--------------------------------|
D|7-7-7-7-7-7-7-7-8-8-8-8-8-8-8-8-|7-7-7-7-7-7-7-7-4-4-4-4-4-4-4-4-| (X8)
A|5-5-5-5-5-5-5-5-5-5-5-5-5-5-5-5-|4-4-4-4-4-4-4-4-4-4-4-4-4-4-4-4-|
D|5-5-5-5-5-5-5-5-5-5-5-5-5-5-5-5-|4-4-4-4-4-4-4-4-4-4-4-4-4-4-4-4-|

Tremolo Low Harm
4/4
(32nd notes)

e|-----------------------|
B|-----------------------|
G|-----------------------|
D|7-8-7-7h8p7------------| (X2)
A|------------10-9-------|
D|-----------------------|

Chords from hell again
4/4
e|--------------------------------|--------------------------------|
B|--------------------------------|--------------------------------|
G|--------------------------------|--------------------------------|
D|7-7-7-7-7-7-7-7-8-8-8-8-8-8-8-8-|7-7-7-7-7-7-7-7-4-4-4-4-4-4-4-4-| (X4)
A|5-5-5-5-5-5-5-5-5-5-5-5-5-5-5-5-|4-4-4-4-4-4-4-4-4-4-4-4-4-4-4-4-|
D|5-5-5-5-5-5-5-5-5-5-5-5-5-5-5-5-|4-4-4-4-4-4-4-4-4-4-4-4-4-4-4-4-|


[Rhythm for Solo]
4/4

e|--------------------------------|--------------------------------|
B|--------------------------------|--------------------------------|
G|--------------------------------|--------------------------------|
D|--------------------------------|--------------------------------| 
A|--------------------------------|--------------------------------|
D|5-5-5-5-5-5-5-5-5-5-5-5-5-5-5-5-|4-4-4-4-4-4-4-4-7-7-7-7-4-4-4-4-|

e|--------------------------------|--------------------------------|
B|--------------------------------|--------------------------------|
G|--------------------------------|--------------------------------|
D|--------------------------------|--------------------------------|(X2) 
A|--------------------------------|--------------------------------|
D|5-5-5-5-5-5-5-5-8-8-8-8-7-7-7-7-|4-4-4-4-4-4-4-4-0-0-0-0-0-0-0-0-|

e|--------------------------------|--------------------------------|
B|--------------------------------|--------------------------------|
G|--------------------------------|--------------------------------|
D|--------------------------------|--------------------------------| 
A|--------------------------------|--------------------------------|
D|1-1-1-1-1-1-1-1-1-1-1-1-1-1-1-1-|0-0-0-0-0-0-0-0-4-4-4-4-0-0-0-0-|

e|-----------------------------------------------------------------|
B|-----------------------------------------------------------------|
G|-----------------------------------------------------------------|
D|-----------------------------------------------------------------| 
A|-----------------------------------------------------------------|
D|1-1-1-1-1-1-1-1-1-1-1-1-1-1-1-1-|0-0-0-0-0-0-0-0-4-4-4-4-4-4-4-4-|

e|--------------------------------|--------------------------------|
B|--------------------------------|--------------------------------|
G|--------------------------------|--------------------------------|
D|--------------------------------|--------------------------------| 
A|--------------------------------|--------------------------------|
D|5-5-5-5-5-5-5-5-5-5-5-5-5-5-5-5-|4-4-4-4-4-4-4-4-7-7-7-7-4-4-4-4-|

e|--------------------------------|--------------------------------|
B|--------------------------------|--------------------------------|
G|--------------------------------|--------------------------------|
D|--------------------------------|--------------------------------|(X2) 
A|--------------------------------|--------------------------------|
D|5-5-5-5-5-5-5-5-8-8-8-8-7-7-7-7-|4-4-4-4-4-4-4-4-0-0-0-0-0-0-0-0-|


[PART 5]

Black Metal Judas Priest
4/4

e|-----------------|-----------------|-----------------|-----------------|
B|---------------4-|---------------4-|---------------3-|---------------3-|
G|---------------3-|---------------3-|---------------2-|---------------2-|
D|---------------1-|---------------1-|---------------0-|---------------0-| 
A|-------------1-1-|-------------1-1-|-------------0-0-|-------------0-0-|
D|111111111111-1-1-|111111111111-1-1-|000000000000-0-0-|000000000000-0-0-|

e|-----------------|-------------------|-----------------|------------------|
B|---------------4-|-------------4/6-4-|---------------3-|----------------3-|
G|---------------3-|-------------3/5-3-|---------------2-|----------------2-|
D|---------------1-|-------------1/3-1-|---------------0-|----------------0-| (X2)
A|-------------1-1-|-------------------|-------------0-0-|--------------0-0-|
D|111111111111-1-1-|111111111111-------|000000000000-0-0-|0000000000000-0-0-| Ends with a slide...


Meshuggah meets Gojira and Lamb Of God
4/4

e|--------------------------------|--------------------------------|
B|--------------------------------|--------------------------------|
G|--------------------------------|--------------------------------|
D|--------------------------------|--------------------------------| 
A|--------------------------------|--------------------------------|
D|111-1-1-1-111-1-111-1-1-1-111-1-|111-1-1-1-111-1-111-1-1-3-333-3-|


e|--------------------------------|--------------------------------|
B|--------------------------------|--------------------------------|
G|--------------------------------|--------------------------------|
D|--------------------------------|--------------------------------|
A|--------------------------------|--------------------------------|
D|000-0-0-0-000-0-000-0-0-0-000-0-|000-0-0-0-000-0-000-0-0-0-000-0-|

e|--------------------------------|--------------------------------|
B|--------------------------------|--------------------------------|
G|--------------------------------|--------------------------------|
D|--------------------------------|--------------------------------| 
A|--------------------------------|--------------------------------|
D|111-1-1-1-111-1-111-1-1-1-111-1-|111-1-1-1-111-1-111-1-1-3-333-3-|


e|--------------------------------|--------------------------------|
B|--------------------------------|--------------------------------|
G|--------------------------------|--------------------------------|
D|--------------------------------|--------------------------------| (X2)
A|--------------------------------|--------------------------------|
D|000-0-0-0-000-0-000-0-0-0-000-0-|000-0-0-0-000-0-XXX-X-X-X-XXX-X-|


[Outro]

Feat. Black Metal Chords
4/4

e|----------|----------|
B|----------|----------|
G|----------|----------|
D|7----8----|7----4----|(X3)
A|5----5----|4----4----|
D|5----5----|4----4----|

More Black Metal Chords
6/8

e|-------------------------|
B|-------------------------|
G|-------------------------|
D|4---3---3--2-3-2h3p2---2-|  
A|1---1---0------------5-0-|
D|1---1---0--------------0-|


Suggest correction
Creating personal tab
Creating personal tab
You can edit any tab online and save it as your Personal.

You can edit, replace or remove any tab part or add personal notes – all changes will be seen only by you.

Personal tabs can be accessed anytime from any device, even offline.
Learn more »
Give kudos to tab author, rate the tab!
1 2 3 4 5
comments
print report bad tab
guest
Wanna post a correction for this tab? Suggest correction