Oops, an error
Loading. Please wait.

Taste The Touch bass

by Asteria
737 views 1 this week
4 commentsread comments
1 2 3 4 5
2 more votes to show rating
add to favorites
×
Save as Personal and add changes to this tab that will be seen only by you. Learn more ›
×
You can save this tab as Personal to edit and correct it or add notes. All changes will be seen only by you. Learn more »
launch autoscroll
font size
0
reset
guitar tuner
edit
Autoscroll
slow
fast
+/-
esc
set tempo
stop
Author
Difficulty
                      _____________________________
                     /The Taste the Touch - Asteria\
                     \_____________________________/

Tabbed By: Brian
E-Mail: cactaur1993@yahoo.com

Song: The Taste the Touch
Artist: Asteria
Album: Slip Into Something More Comfortable

Key:
~~~~~ = Let the note ring

Intro (No Bass; Only guitars)

Verse 1
G|---------------------------------------------------------------------|
D|---------------------------------------------------------------------|
A|7777777777777777-2222222222222222-3333333333333333-22222222-55555555-|
E|---------------------------------------------------------------------|

G|--------------------------------------------------------------|
D|--------------------------------------------------------------|
A|7777777777777777-2222222222222222-3333333333333333-22222222-5-|
E|--------------------------------------------------------------|

Chorus 1
G|---------------------------------------------------------------------|
D|---------------------------------------------------------------------|
A|3333333333333333-----------------------------------------------------|
E|-----------------3333333333333333-2222222222222222-33333333-55555555-|

G|-----------------------------------------------------------------|
D|-----------------------------------------------------------------|
A|3333333333333333-------------------------------------------------|
E|-----------------3333333333333333-2222222222222222-33333333-5432-|

Verse 2
G|---------------------------------------|
D|-5--5--5---5--5--5---5--5--5---5--5--5-|
A|5--5--5---2--2--2---5--5--5---2--2--2--|
E|---------------------------------------|

G|--------------------------------------|
D|-5--5--5---5--5--5---5--5--5---5------|
A|5--5--5---2--2--2---5--5--5---2--5-5--|
E|--------------------------------------|

Chorus 2
G|---------------------------------------------------------------------|
D|---------------------------------------------------------------------|
A|3333333333333333-----------------------------------------------------|
E|-----------------3333333333333333-2222222222222222-33333333-55555555-|

G|-----------------------------------------------------------------|
D|-----------------------------------------------------------------|
A|3333333333333333-------------------------------------------------|
E|-----------------3333333333333333-2222222222222222-33333333-5432-|

Bridge Pt.1
G|---------------------------------------|
D|---------------------------------------|
A|7--7-2--2-3--3-2-5--7--7-2--2-3--3-2-5-|
E|---------------------------------------|

G|---------------------------------------|
D|---------------------------------------|
A|7--7-2--2-3--3-2-5--7--7-2--2-3--3-2-5-|
E|---------------------------------------|

G|---------------------------------------|
D|---------------------------------------|
A|7--7-2--2-3--3-2-5--7--7-2--2-3--3-2-5-|
E|---------------------------------------|

Bridge Pt.2
G|---------------------------------------------------------------|
D|---------------------------------------------------------------|
A|77-222-000-333-222-333-5-5-5-5--77-222-000-333-222-333-5-5-5-5-|
E|---------------------------------------------------------------|

G|-------------------------------------------------------------------------|
D|-------------------------------------------------------------------------|
A|77-222-000-333-222-333-5-5-5-5--77-222-000-333-222-333-5-5-5-5-5-5-5-5-5-|
E|-------------------------------------------------------------------------|

Rest (Drum solo)

Chorus 3
G|---------------------------------------------------------------------|
D|---------------------------------------------------------------------|
A|3333333333333333-----------------------------------------------------|
E|-----------------3333333333333333-2222222222222222-33333333-55555555-|

G|-----------------------------------------------------------------|
D|-----------------------------------------------------------------|
A|3333333333333333-------------------------------------------------|
E|-----------------3333333333333333-2222222222222222-33333333-5432-|

Outro
G|--------------------------------------|
D|-5--5--5---5--5--5---5--5--5---5------|
A|5--5--5---2--2--2---5--5--5---2--5-5--|
E|--------------------------------------|

That's the end and I hope you enjoyed the tab! :)

            
            
Suggest correction
Creating personal tab
Creating personal tab
You can edit any tab online and save it as your Personal.

You can edit, replace or remove any tab part or add personal notes – all changes will be seen only by you.

Personal tabs can be accessed anytime from any device, even offline.
Learn more »
Give kudos to tab author, rate the tab!
1 2 3 4 5
comments
print report bad tab
4 comments total. Showing first comments.
0 reply
a7xgdpatd 10 Apr 14, 2007 07:17 PM

umm there actually is sum bass in the beginning lk around 0:09 it starts

0 reply
MetalBassist93 345 Apr 15, 2007 06:36 AM

0:09 is where the verse starts

0 reply
rastabass 308 Jul 24, 2008 09:09 AM

The riff after the chorus is wrong, and its the funnest part to play so here is the correction:

this is the basic riff he plays:

--------------------------
---5----55h7---4----44/5--
-7---77------2---22-------
--------------------------

--------------------------
---5----55h7---4----754---
-7---77------2--2/5-------
--------------------------


Then the bridge pt 1 goes like this:

------------------------------
------------------------------
-7--7-9-10--10-9----9-----5---
------------------8--8--7-----

then he does a variation that goes like this:

-----------------------------
------------------77---------
-7--7-9-10--10-9-----101099--
-----------------------------

Bridge pt2 goes like this:

-------------------------------7h9999--
----------------777--------999---------
-77--101010-999-----101010-------------
---------------------------------------


you got the easy parts right but the hard parts wrong... 3.5 stars these corrections are 100% right

guest
You may want to rate the tab now too:
select rating
Wanna post a correction for this tab? Suggest correction