Oops, an error
Loading. Please wait.

The Taste The Touch bass

by Asteria
377 views 1 this week
no commentswrite comment
1 2 3 4 5
3 more votes to show rating
add to favorites
×
Save as Personal and add changes to this tab that will be seen only by you. Learn more ›
×
You can save this tab as Personal to edit and correct it or add notes. All changes will be seen only by you. Learn more »
launch autoscroll
font size
0
reset
guitar tuner
edit
Autoscroll
slow
fast
+/-
esc
set tempo
stop
Author
Difficulty
Asteria - The Taste, The Touch
5 string Bass tab
on a 4 string move all notes up one string and 5 frets down.

I've played along to this song countless times and this fits everywhere, as far as I can tell.

intro/verse
G|------------------------------------------------------------------|
D|------------------------------------------------------------------|
A|-/7---------------------7-----------------------------------------|
E|------7----8----7--10---------7----8----7--10/--------------------|
B|------------------------------------------------------------------|

chorus
G|------------------------------------------------------------------|
D|------------------------------------------------------------------|
A|-------------------------------------------------------99999999---|
E|-88-8888-88-8888--------------------------------------------------|
B|----------------88-8888-88-888877-7777-77-7777-88-8888------------|

G|------------------------------------------------------------------|
D|------------------------------------------------------99-77-------|
A|------------------------------------------------------------101099|
E|-88-8888-88-8888--------------------------------------------------|
B|----------------88-8888-88-888877-7777-77-777788-8888-------------|

verse 2
G|------------------------------------------------------------------|
D|------------------------------------------------------------------|
A|-7-10--7-10-10/12-----9---9-9/10---10---10-10/9----9-----12--10h12|
E|--------------------7---7--------8----8----------7----10----------|
B|------------------------------------------------------------------|

G|------------------------------------------------------------------|
D|------------------------------------------------------------------|
A|-7-10--7-10-10/12-----9---9-9/10---10---10-10/9----9-----12/------|
E|--------------------7---7--------8----8----------7----10----------|
B|------------------------------------------------------------------|

mid part thing. something like this (or at least i play this and it works)


G|---------------------------|---------------------------------------|
D|--------9-7----------------|--------------------9-7----------------|
A|-7--910----10---910--------|-7--910---910---910-----10-------------|
E|--------------8-----7--10--|--------7-----8------------------------|
B|---------------------------|---------------------------------------|
		first 2			second 2

To be honest though, not sure how much of it is the bass or whatever, but if you're 
along to the song, this sounds nice

build up to chorus/outro
G|----------------------------------------------------------------|
D|----------------------------------------------------------------|
A|----------------------------------------------------------------|
E|------------------------77-7-10-10-10-10------------------------|
B|-55-588-877-71010-1088-8----------------------------------------|
fourth time play the 10 on the e string 9 times instead of 4.

outro
G|------------------------------------------------------------------|
D|------------------------------------------------------------------|
A|-7-10--7-10-10/12-----9---9-9/10---10---10-10/9----9-----12/------|
E|--------------------7---7--------8----8----------7----10----------|
B|------------------------------------------------------------------|

song order

intro/verse
chorus
verse2
chorus
mid
build up
chorus
outro


Tabbed by: Sam Hughes

            
            
Suggest correction
Creating personal tab
Creating personal tab
You can edit any tab online and save it as your Personal.

You can edit, replace or remove any tab part or add personal notes – all changes will be seen only by you.

Personal tabs can be accessed anytime from any device, even offline.
Learn more »
Give kudos to tab author, rate the tab!
1 2 3 4 5
comments
print report bad tab
guest
You may want to rate the tab now too:
select rating
Wanna post a correction for this tab? Suggest correction