Oops, an error
Loading. Please wait.

Crone Alone bass

22 views 1 this week
no commentswrite comment
1 2 3 4 5
3 more votes to show rating
add to favorites
×
Save as Personal and add changes to this tab that will be seen only by you. Learn more ›
×
You can save this tab as Personal to edit and correct it or add notes. All changes will be seen only by you. Learn more »
launch autoscroll
font size
0
reset
guitar tuner
edit
Autoscroll
slow
fast
+/-
esc
set tempo
stop
About this tab version
The Studio version Tabbed by Astro Menace them self. Was this info helpful? Yes No
Song: Astro Menace - Crone Alone
From the 'Crash Landing' EP (2017)
Credit to Haydizzle91 (Astro Menace's Guitarist)
Tuning: Standard

[Verse Part 1] In a forest, decayed trees..
G|-----------------|
D|-----------------|
A|-----------------|
E|-8-8-8-8-5-5-5-5-| x16

[Verse Part 2] Decorated house with ash.. 
G|-------------------------------------------------5-5-5-5-6-6-6-6-|
D|-----------------------------------------------------------------|
A|-----------------------------------------------------------------|
E|-8-8-8-8-9-9-9-9-8-8-8-8-5-5-5-5-8-8-8-8-9-9-9-9-----------------| X2

[Chorus Interlude]
G|-----------------|
D|---6-9-6---5-8-5-|
A|-7-------6-------|
E|-----------------| x1

[Chorus] Hey, hey, hey, come and take me away.. 
G|-----------------------------------------------------------------|
D|-----------------------------------------------------------------|
A|-----------------------------------------------------7-7-5-5-4---|
E|-3-3-3-3-8-8-8-8-5-5-5-5-5-5-5-5-3-3-3-3-8-8-8-8-5-5-----------5-|x2

[Post-Chorus]
G|-----------|
D|-----------|
A|-----------|
E|-8----5----|x4

[Verse Part 2] Through the windows..
G|-------------------------------------------------5-5-5-5-6-6-6-6-|
D|-----------------------------------------------------------------|
A|-----------------------------------------------------------------|
E|-8-8-8-8-9-9-9-9-8-8-8-8-5-5-5-5-8-8-8-8-9-9-9-9-----------------| X2

[No Bass for 4 bars] Then slide in before chorus

[Chorus]
G|-----------------------------------------------------------------|
D|-----------------------------------------------------------------|
A|-----------------------------------------------------7-7-5-5-4---|
E|-3-3-3-3-8-8-8-8-5-5-5-5-5-5-5-5-3-3-3-3-8-8-8-8-5-5-----------5-|x2

[Bridge Part One] Alone yeah..
G|-----------------|
D|-----------------|
A|-6-6-6-6-6-------|
E|-----------5-5-5-|X4

[Bridge Part 2] Aaahh-Aaaaaalone Yeah..
(A)-->                            (B)-->    
G|---------------------------------|---------------------------------|
D|---------------------------------|-------------------5-6-8---------|
A|-----------------6-6-6-6-6-------|-----------------6---------7-5-4-|
E|-0-0-0-0-4-4-4-4-----------5-5-5-|-0-0-0-0-4-4-4-4---------5-------| Ax2,Bx1,Ax1

[Bridge Closure]
G|-----------|
D|-----------|
A|-----------|
E|-5----7----|x1

[Final Verse] In a forest..
G|---------------------------------------------------------------------------------|
D|---------------------------------------------------------------------------------|
A|---------------------------------------------------------------------------------|
E|-8---5---8---5---8---5---8---5---8---5---8---5---8-8-8-8-5-5-5-5-8-8-8-8-5-5-5-5-|x1

[Chorus]
G|-----------------------------------------------------------------|   |-----|
D|-----------------------------------------------------------------|   |-----|
A|-----------------------------------------------------7-7-5-5-4---|   |-----|
E|-3-3-3-3-8-8-8-8-5-5-5-5-5-5-5-5-3-3-3-3-8-8-8-8-5-5-----------5-|x4 |-5-5-|x1

 




            
            
Suggest correction
Creating personal tab
Creating personal tab
You can edit any tab online and save it as your Personal.

You can edit, replace or remove any tab part or add personal notes – all changes will be seen only by you.

Personal tabs can be accessed anytime from any device, even offline.
Learn more »
Give kudos to tab author, rate the tab!
1 2 3 4 5
comments
print report bad tab
guest
You may want to rate the tab now too:
select rating
Wanna post a correction for this tab? Suggest correction