Oops, an error
Loading. Please wait.

I Know Tab

58 views 9 this week
1 commentread comment
1 2 3 4 5
x 3
add to favorites
launch autoscroll
font size
0
reset
how to read this tab
guitar tuner
Autoscroll
slow
fast
+/-
esc
set tempo
stop
Help us to improve Ultimate-Guitar.com Take our survey!
×
Author
Difficulty
intermediate
About this tab version
The first and original tab of the solo. Was this info helpful? Yes No
Artist: Astronauts, etc.
Song: I know
Tuning: Standard
Difficulty: Intermediate
Tabbed by: Tom Hobson

[Solo] 1:02
e|--------------------------------------------------------------------------------------|
B|--------------------------------------------------------------------------------------|
G|-------------------------------------------------------------------15-15--------------|
D|-15-15-15-15-13----13-15-(15/)17-(15/)17---17-17-17-17-15-13-15-17--------------------|
A|----------------15--------------------------------------------------------------------|
E|--------------------------------------------------------------------------------------|

e|--------------------------------------------------------------------------------------|
B|--------------------------------------------------------------------------------------|
G|--------------------------------------------------------------------------------------|
D|-15-15-15-15-13----13-15-(15/)17-(15/)17-15-13-15-13----13----------------------------|
A|----------------15-----------------------------------15----15-13-15-13----13----------|
E|-----------------------------------------------------------------------15----15-13-13-|

e|--------------------------------------------------------------------------------------|
B|--------------------------------------------------------------------------------------|
G|---------------------------------------------------------------------(15/)17-15-------|
D|--15-15-15-15-13----13-15-(15/)17-(15/)17---17-17-17-17-15-13-15-17-------------------|
A|-----------------15-------------------------------------------------------------------|
E|--------------------------------------------------------------------------------------|

e|--------------------------------------------------------------------------------------|
B|--------------------------------------------------------------------------------------|
G|--------------------------------------------------------------------------------------|
D|-15-15-15-15-13----13-15-(15/)17-(15/)17-15-13-15-13----13----------------------------|
A|----------------15-----------------------------------15----15-13-15-13----13----------|
E|-----------------------------------------------------------------------15----15-13-13-|

************************************

| /  Slide up

************************************
Suggest correction
Give kudos to tab author, rate the tab!
1 2 3 4 5
comments
print report bad tab
1 comment total.
0 reply
p1519962x 10 Oct 25, 2016 12:56 PM

Great tab, thanks, been looking all over for this

guest
You may want to rate the tab now too:
select rating
Wanna post a correction for this tab? Suggest correction