Oops, an error
Loading. Please wait.

Back To Africa bass

by Aswad
1,436 views 1 this week
no commentswrite comment
1 2 3 4 5
1 last vote to show rating
add to favorites
×
Save as Personal and add changes to this tab that will be seen only by you. Learn more ›
×
You can save this tab as Personal to edit and correct it or add notes. All changes will be seen only by you. Learn more »
launch autoscroll
font size
0
reset
guitar tuner
edit
Autoscroll
slow
fast
+/-
esc
set tempo
stop
Author
Title; Back to Africa
Artist; Aswad
Bassist; Tony Gad
Album; Showcase
Tabbed by; mattydread2@yahoo.com

Lovely lazy riddim, beautiful song and the bassline is a lot easier than it sounds.


intro/chorus riff X3
            F          C                           E
G------------------------------|--------------------------------------|
D------------------------------|--------------------------------------|
A--8888888--8---3-5-3---3-5-3--|--7777777------------7777777----------|
E----------8---5------5--------|---------7-3-(0)-------------7-3-(0)--|

 (0)= let these notes ring until the next note


verse riff X2
                 A
G--------------------------------|
D------7-7----7-7----7-7----7-7--|
A--5--8-8-5--8-8-5--8-8-5--8-8---|
E--------------------------------|

G---------------------------------------|
D------9--9-----9--9-----9--9-----9--9--|
A-7--10-10-7--10-10-7--10-10-7--10-10---|
E---------------------------------------|


Find Aswad at; http://en.wikipedia.org/wiki/Aswad_(band)
Suggest correction
Creating personal tab
Creating personal tab
You can edit any tab online and save it as your Personal.

You can edit, replace or remove any tab part or add personal notes – all changes will be seen only by you.

Personal tabs can be accessed anytime from any device, even offline.
Learn more »
Give kudos to tab author, rate the tab!
1 2 3 4 5
comments
print report bad tab
guest
You may want to rate the tab now too:
select rating
Wanna post a correction for this tab? Suggest correction