Oops, an error
Loading. Please wait.

Dead Bird tab

22 views 1 this week
no commentswrite comment
1 2 3 4 5
3 more votes to show rating
add to favorites
×
Save as Personal and add changes to this tab that will be seen only by you. Learn more ›
×
You can save this tab as Personal to edit and correct it or add notes. All changes will be seen only by you. Learn more »
launch autoscroll
font size
0
reset
how to read this tab
guitar tuner
edit
Autoscroll
slow
fast
+/-
esc
set tempo
stop
Dead Bird 
Written by Asylum of Voices
Guitar by Caleb Wood

(Listen to the song for timing)

Drop D Tuning: DADGBE

E|-------------xxxx-------------xxxx-|
B|---8---------xxxx---8---------xxxx-|
G|---7---------xxxx---7---------xxxx-|
D|-------------xxxx-------------xxxx-|
A|---5---------xxxx---5---------xxxx-|
D|-0---0-3h5-5-xxxx-0---0-3h5-5-xxxx-|

E|----------------------------------|
B|---8---------------8--------------|
G|---7---------------7--------------|
D|----------------------------------|
A|---5---------3-----5--------------|
D|-0---0-3h5-5---5-0---0-3h5-5-3h5-5|


E|------------------------------|
B|---8--------------------------|
G|---7--------------------------|
D|------------------------------|
A|---5---------3----------------|
D|-0---0-3h5-5---5-00-00-0-3333-|

E|----------------------------------|
B|---8---------------8--------------|
G|---7---------------7--------------|
D|----------------------------------|
A|---5---------3-----5--------------|
D|-0---0-3h5-5---5-0---0-3h5-5-3h5-5|


E|------------------------------|
B|---8--------------------------|
G|---7--------------------------|
D|------------------------------|
A|---5---------3----------------|
D|-0---0-3h5-5---5-00-00-0-3333-|

E|----------------------------------|
B|----------------------------------|
G|-------12-14b-12-------12-14b-12--|
D|-12h14-----------12h14------------|
A|----------------------------------|
D|----------------------------------|

E|----------------------------------|
B|------------------15-15-15--------|
G|-------12-14b-12--14b-14b-14b-12--|
D|-12h14----------------------------|
A|----------------------------------|
D|----------------------------------|

E|----------------------------------|
B|----------------------------------|
G|-------12-14b-12-------12-14b-12--|
D|-12h14-----------12h14------------|
A|----------------------------------|
D|----------------------------------|

E|-12-12-12-12-12-12-15-------------|
B|-15b---15b---15b---18b------------|
G|----------------------------------|
D|----------------------------------|
A|----------------------------------|
D|----------------------------------|

 (Palm muted)
E|--------------------------------------------|
B|--------------------------------------------|
G|--------------------------------------------|
D|--------------------------------------------|
A|-555555555-33333333-22222222-111111111------|
D|--------------------------------------------|
                             (Not Palm Muted)
e--------------------------------------------|
B--------------------------------------------|
G-----------------------------333333333------|
D-----------------------------xxxxxxxxx------|
A-555555555-33333333-22222222-111111111------|
D--------------------------------------------|

E|-------xxxx-------xxxx-------xxxx-----------|
B|-------xxxx-------xxxx-------xxxx-----------|
G|-------xxxx-------xxxx-------xxxx-----------|
D|-------xxxx-------xxxx-------xxxx-----------|
A|-------xxxx-------xxxx-------xxxx-------3---|
D|-3h5-5-xxxx-3h5-5-xxxx-3h5-5-xxxx-3h5-5---5-|

E|-------xxxx-------xxxx-------------------------|
B|-------xxxx-------xxxx-------------------------|
G|-------xxxx-------xxxx-------------------------|
D|-------xxxx-------xxxx-------------------------|
A|-------xxxx-------xxxx-------------------------|
D|-3h5-5-xxxx-3h5-5-xxxx-3h5-5-3h5-5-3h5-5-3h5-5-|

E|-------xxxx-------xxxx-------xxxx-----------|
B|-------xxxx-------xxxx-------xxxx-----------|
G|-------xxxx-------xxxx-------xxxx-----------|
D|-------xxxx-------xxxx-------xxxx-----------|
A|-------xxxx-------xxxx-------xxxx-------3---|
D|-3h5-5-xxxx-3h5-5-xxxx-3h5-5-xxxx-3h5-5---5-|

E|-------xxxx-------xxxx----------|
B|-------xxxx-------xxxx----------|
G|-------xxxx-------xxxx----------|
D|-------xxxx-------xxxx-55555555-|
A|-------xxxx-------xxxx-55555555-|
D|-3h5-5-xxxx-3h5-5-xxxx-55555555-|

E|----------------------------------|
B|---8---------------8--------------|
G|---7---------------7--------------|
D|----------------------------------|
A|---5---------3-----5--------------|
D|-0---0-3h5-5---5-0---0-3h5-5-3h5-5|


E|------------------------------|
B|---8--------------------------|
G|---7--------------------------|
D|------------------------------|
A|---5---------3----------------|
D|-0---0-3h5-5---5-00-00-0-3333-|

E|----------------------------------|
B|---8---------------8--------------|
G|---7---------------7--------------|
D|----------------------------------|
A|---5---------3-----5--------------|
D|-0---0-3h5-5---5-0---0-3h5-5-3h5-5|


E|------------------------------|
B|---8--------------------------|
G|---7--------------------------|
D|------------------------------|
A|---5---------3----------------|
D|-0---0-3h5-5---5-00-00-0-3333-|

E|----------------------------------|
B|----------------------------------|
G|-------12-14b-12-------12-14b-12--|
D|-12h14-----------12h14------------|
A|----------------------------------|
D|----------------------------------|

E|----------------------------------|
B|------------------15-15-15--------|
G|-------12-14b-12--14b-14b-14b-12--|
D|-12h14----------------------------|
A|----------------------------------|
D|----------------------------------|

E|----------------------------------|
B|----------------------------------|
G|-------12-14b-12-------12-14b-12--|
D|-12h14-----------12h14------------|
A|----------------------------------|
D|----------------------------------|

E|---12--11--10~--|
B|-12--11--10-----|
G|----------------|
D|----------------|
A|----------------|
D|----------------|

E|-x-x--x-x----x-x--x-x----x-x--x-x----x-x-----------|
B|---------------------------------------------------|
G|----7~----------5~----------4~----------3~---------|
D|-----------------------------------------------3h5-|
A|---------3h5~--------3h5~--------3h5~-------3h5----|
D|---------------------------------------------------|

E|-x-x--x-x----x-x--x-x----x-x--x-x-----------|
B|--------------------------------------------|
G|----7~----------6~----------5~---------3h5~-|
D|------------------------------------3h4-----|
A|---------3h5~--------3h5~--------3h5--------|
D|--------------------------------------------|

E|-------xxxx-------xxxx-------xxxx-----------|
B|-------xxxx-------xxxx-------xxxx-----------|
G|-------xxxx-------xxxx-------xxxx-----------|
D|-------xxxx-------xxxx-------xxxx-----------|
A|-------xxxx-------xxxx-------xxxx-------3---|
D|-3h5-5-xxxx-3h5-5-xxxx-3h5-5-xxxx-3h5-5---5-|

E|-------xxxx-------xxxx-------------------------|
B|-------xxxx-------xxxx-------------------------|
G|-------xxxx-------xxxx-------------------------|
D|-------xxxx-------xxxx-------------------------|
A|-------xxxx-------xxxx-------------------------|
D|-3h5-5-xxxx-3h5-5-xxxx-3h5-5-3h5-5-3h5-5-3h5-5-|

E|-------xxxx-------xxxx-------xxxx-----------|
B|-------xxxx-------xxxx-------xxxx-----------|
G|-------xxxx-------xxxx-------xxxx-----------|
D|-------xxxx-------xxxx-------xxxx-----------|
A|-------xxxx-------xxxx-------xxxx-------3---|
D|-3h5-5-xxxx-3h5-5-xxxx-3h5-5-xxxx-3h5-5---5-|

E|-------xxxx-------xxxx----------|
B|-------xxxx-------xxxx----------|
G|-------xxxx-------xxxx----------|
D|-------xxxx-------xxxx-55555555-|
A|-------xxxx-------xxxx-55555555-|
D|-3h5-5-xxxx-3h5-5-xxxx-55555555-|

E|----------------------------------|
B|---8---------------8--------------|
G|---7---------------7--------------|
D|----------------------------------|
A|---5---------3-----5--------------|
D|-0---0-3h5-5---5-0---0-3h5-5-3h5-5|


E|------------------------------|
B|---8--------------------------|
G|---7--------------------------|
D|------------------------------|
A|---5---------3----------------|
D|-0---0-3h5-5---5-00-00-0-3333-|

E|----------------------------------|
B|---8---------------8--------------|
G|---7---------------7--------------|
D|----------------------------------|
A|---5---------3-----5--------------|
D|-0---0-3h5-5---5-0---0-3h5-5-3h5-5|


E|---------------------------------|
B|---8-----------------------------|
G|---7-----------------------------|
D|---------------------------------|
A|---5---------3-------------------|
D|-0---0-3h5-5---5-00-00-0-3333/20-|

E|----------------------------------------------|
B|----------------------------------------------|
G|----------------------------------------------|
D|-5h7-7-5h7-7-5h7-7------5h7-7-5h7-7-5h7-7-----|
A|-------------------3h5~------------------3h5~-|
D|----------------------------------------------|

E|---------------------------------------------|
B|---------------------------------------15~---|
G|------------------------------------14~------|
D|-5h7-7-5h7-7-5h7-7------5h7-7-5h7-7----------|
A|-------------------3h5~----------------------|
D|---------------------------------------------|

E|----------------------------------------------------|
B|----------------------------------------------------|
G|-5h7-7-5h7-7-5h7-7--------5h7-7-5h7-7-5h7-7---------|
D|-5h7-7-5h7-7-5h7-7----3h5-5h7-7-5h7-7-5h7-7-----3h5-|
A|-------------------3h5----------------------3h5-----|
D|----------------------------------------------------|

E|-----------------------------------|
B|-----------------------------------|
G|-5h7-7-5h7-7-5h7-7--------55555555-|
D|-5h7-7-5h7-7-5h7-7----3h5-55555555-|
A|-------------------3h5----55555555-|
D|--------------------------55555555-|

E|-----------------------------------|
B|---8---------------8--------------|
G|---7---------------7--------------|
D|----------------------------------|
A|---5---------3-----5--------------|
D|-0---0-3h5-5---5-0---0-3h5-5-3h5-5|


E|------------------------------|
B|---8--------------------------|
G|---7--------------------------|
D|------------------------------|
A|---5---------3----------------|
D|-0---0-3h5-5---5-00-00-0-3333-|

E|----------------------------------|
B|---8---------------8--------------|
G|---7---------------7--------------|
D|----------------------------------|
A|---5---------3-----5--------------|
D|-0---0-3h5-5---5-0---0-3h5-5-3h5-5|


E|------------------------------|
B|---8--------------------------|
G|---7--------------------------|
D|------------------------------|
A|---5---------3----------------|
D|-0---0-3h5-5---5-00-00-0-3333-|

E|----------------------------------|
B|---8---------------8--------------|
G|---7---------------7--------------|
D|----------------------------------|
A|---5---------3-----5--------------|
D|-0---0-3h5-5---5-0---0-3h5-5-3h5-5|


E|------------------------------|
B|---8--------------------------|
G|---7--------------------------|
D|------------------------------|
A|---5---------3----------------|
D|-0---0-3h5-5---5-00-00-0-3333-|

E|----------------------------------|
B|---8---------------8--------------|
G|---7---------------7--------------|
D|----------------------------------|
A|---5---------3-----5--------------|
D|-0---0-3h5-5---5-0---0-3h5-5-3h5-5|


E|------------------------------|
B|---8--------------------------|
G|---7--------------------------|
D|------------------------------|
A|---5---------3----------------|
D|-0---0-3h5-5---5-00-00-0-3333-|

(Use previous solo licks inbetween phrases of last chorus, it is improvised entirely live.)



************************************

| x  Dead note
| h  Hammer-on
| b  Bend
| ~  Vibrato
| /  Slide up
 

************************************
Suggest correction
Creating personal tab
Creating personal tab
You can edit any tab online and save it as your Personal.

You can edit, replace or remove any tab part or add personal notes – all changes will be seen only by you.

Personal tabs can be accessed anytime from any device, even offline.
Learn more »
Give kudos to tab author, rate the tab!
1 2 3 4 5
comments
print report bad tab
guest
You may want to rate the tab now too:
select rating
Wanna post a correction for this tab? Suggest correction