Oops, an error
Loading. Please wait.

Eyes Of The Ranger Tab

4,959 views 1 this week
no commentswrite comment
1 2 3 4 5
please rate
add to favorites
launch autoscroll
font size
0
reset
how to read this tab
guitar tuner
Tab Pro tools
  • play this tab
  • loop segment
  • change instrument
  • show fretboard
  • metronome
×
Best way to learn
"Eyes Of The Ranger"
Autoscroll
slow
fast
+/-
esc
set tempo
stop
Contributor
Difficulty
Tuning
intermediate
C G C F A D
 
  ------------------------------------------------------------------------------
- 
                             Eyes of the Ranger - At Daggers Drawn 
------------------------------------------------------------------------------- 
Tabbed by: corykilledyou 
Email:corykilledyou@tmail.com 
Guitar 1: Jonas L 
Guitar 2: Cory K 
Tab is Guitar 2 only. 
Tuning: Drop C 
 
(Drum fill) 
 
Riff A 
d|-----------------------------------------------| 
a|-----------------------------------------------| 
f|-----------------------------------------------| 
c|-------784------------------78-----------------|x4 
g|-------555----5h6p53h5p5-0--55-8-6-------------| 
c|-6p00-----000------------00----8066666---------| 
 
Riff B 
D|------------------------------------| 
A|------------------------------------| 
F|------------------------------------| 
C|-7777777777777777-------------------|x4 
G|-5555555555555555-8888888855555555--| 
C|------------------8888888855555555--| 
 
Riff A x4 
Riff C 
d|----------------------------------------------| 
a|----------------------------------------------| 
f|----------------------------------------------| 
c|----------------------------------------------|x4 
g|-0-5-8-7-10-8-7h8p7--8-8-8h10--5-5-5h7--------| 
c|-00-0-0-0--0-0-------88-8------55-5-----------| 
 
D|----------------------------| 
A|----------------------------| 
F|----------------------------| 
C|----------------------------|x8 
G|-000-000-000-00000----------| 
C|-000-000-000-00000----------| 
 
D|-------------------------------------------------| 
A|-------------------------------------------------| 
F|---x8 (2nd 4x has pauses, listen to the song)----| 
C|-------------------------------------------------| 
G|-"-------"------"--"-----------------------------| 
C|-0-------1------4--3------------------------------| 
 
Riff B x4 
Riff C x5 
 
D|----------------------------------------| 
A|----------------------------------------| 
F|----------------------------------------|x4 
C|----------------------------------------| 
G|---0~---0~---0~---0~--8~----8~--5~----5~| 
C|-000~0000~0000~0000~888~88888~555~55555~| 
 
D|---------------------------------------------| 
A|---------------------------------------------| 
F|---------------------------------------------|x4 
C|---------------------------------------------| 
G|----5h6p5-------------5h6p5 3h5p5 5h6p5------| 
C|-000-----000-000-000-------------------------| 
 
Sorry that I didn't add any lead parts or the solo. I honestly don't 
know them. Figure them out. 
 
| /  slide up 
| \  slide down 
| h  hammer-on 
| p  pull-off 
| ~  vibrato 
| +  harmonic 
| x  Mute note 
========================================= 
comments
We did not receive enough feedback on this tab! Please rate:
print report bad tab
1 2 3 4 5
I want to post or [tab]
guest
You may want to rate the tab now too:
select rating
Please do not post tabs as comments. Select "correction" instead!