Oops, an error
Loading. Please wait.

Purging Of The Wicked Tab

2,445 views 1 this week
4 commentsread comments
1 2 3 4 5
accurate
x 7
add to favorites
launch autoscroll
font size
0
reset
how to read this tab
guitar tuner
Tab Pro tools
  • play this tab
  • loop segment
  • change instrument
  • show fretboard
  • metronome
×
Best way to learn
"Purging Of The Wicked"
Autoscroll
slow
fast
+/-
esc
set tempo
stop
Contributor
Difficulty
Tuning
intermediate
C G C F A D
-----------------------------------------------------------------------------www.atdaggersdrawn.net
www.myspace.com/daggersdrawn
Tabbed by:corykilledyou
Email:corykilledyou@tmail.com

Tuning:Drop C

Riff A
D|----------------------------------------------|
A|----------------------------------------------|
F|----------------------------------------------|
C|----------------------------------------------|   x4
G|----5-8-7p5--8h10--12p10--10-8-7--5-7-8-------|
C|--00-0-0---00----00-----88--8-8-55-5-5--------|

Riff B
d|-----------------------------------------------------------------------|
a|-----------------------------------------------------------------------|
f|-----------------------------------------------------------------------|
c|-----------------------------------------------------------------------|x2
g|----5-8-7p5---------5-8-7p5---------8-10-12p10---------8-10-12p10-8~5~-|
c|--00-0-0---00-00--00-0-0---00-00--00-0--0-----00-00--00-0--0------8~5~-|

Riff C
d|--------------------------------------------|
a|--------------------------------------------|
f|--------------------------------------------|
c|--------------------------------------------| x4
g|-8-8-7h8-5-8-7p5-10--10--8h10-0--10-8-7-----|
c|-88-8----55-5----1010--10-----0-0--0-0------|
  
Riff D
d|-----------------|
a|-----------------|
f|-----------------|
c|-8~~-5~~---------|
g|-8~~-5~~---------|
c|-8~~-5~~---------|

d|---------------------------|----------------------------|
a|---------------------------|----------------------------|
f|---------------------------|----------------------------|
c|-------------------------x3|----------------------------|x2
g|--0-0-0000-00--0-0000-00---|--0-0-0000-00--0-0000-8-10--|
c|--0-0-0000-00--0-0000-00---|--0-0-0000-00--0-0000-8-10--|

d|-----------------------------------------------------------------------------------|
a|-----------------------------------------------------------------------------------|
f|-----------------------------------------------------------------------------------|
c|-----------------------------10----------------------------------------------------|
g|-0---------------------------10----------------------------------------------------|
c|-0-000-000-000-000-000-0-0-0-10-101010-101010-101010-101010-101010-101010-10-10-10|

d|---------------------------------------------------------------------|
a|---------------------------------------------------------------------|
f|---------------------------------------------------------------------|
c|---------------------------------------------------------------------|x3
g|-7---------------------------8-888101010121212101010888101010121212--|
c|-7-777-777-777-777-777-7-7-7-8---------------------------------------|

d|--------------------|
a|--------------------|
f|--------------------|
c|--------------------|
g|-0-0-0-0-0--[5]-----|
c|-0-0-0-0-0----------|


Riff A  x4

e|------------------------------------------------------------------|
B|------------------------------------------------------------------|
G|------------------------------------------------------------------|
D|------------------------------------------------------------------|x2
A|-----------------------5-8-7-[4]-----------------8-----7---5-4----|
E|-000-000-000-000-0-5-8-----------000-000-000-000---5-0---4-----7--|

e|--------------------------------------------------|
B|--------------------------------------------------|
G|--------------------------------------------------|
D|-----------------"-"-"-"-----------------"-"-"-"--|x2
A|-----------------5-8-4-7-----------------8-5-7-4--|
E|-000-000-000-000---------000-000-000-000----------|

Riff C x2

Riff D x1

(Solo)

| /  slide up
| \  slide down
| h  hammer-on
| p  pull-off
| ~  vibrato
| +  harmonic
| x  Mute note
===============================================================================
comments
print report bad tab
4 comments total. Showing first comments.
0 reply
synestershadows wrote on June 24 2008, 03:28 pm

the bands name is sea of treachery and the album name is at daggers dawn.

0 reply
avengedEVANfold wrote on June 25 2008, 12:33 am

its okay dude, i got them mixed up at first.

and good tab btw.

0 reply
brandonr116 wrote on December 18 2008, 02:55 am

nice tab. the guitarist from sea of treachery tabbed this so i know its right.

I want to post or [tab]
guest
You may want to rate the tab now too:
select rating
Please do not post tabs as comments. Select "correction" instead!