Oops, an error
Loading. Please wait.

Hell Paso album bass

841 views 1 this week
no commentswrite comment
1 2 3 4 5
2 more votes to show rating
add to favorites
×
Save as Personal and add changes to this tab that will be seen only by you. Learn more ›
×
You can save this tab as Personal to edit and correct it or add notes. All changes will be seen only by you. Learn more »
launch autoscroll
font size
0
reset
guitar tuner
edit
Autoscroll
slow
fast
+/-
esc
set tempo
stop
Author
Difficulty
-------------------------------------------------------------------------------
			     HELL PASO EP - At the Drive-In
-------------------------------------------------------------------------------			



Tuning: 1/4 step up from standard

GRAND MOX TURKIN

Verse:                                   x4
|-----------------------------------------|----------------------|
|--7-7-7777-6-66-666-4-444444-777-5-555---|----------------------|
|-----------------------------------------|----------------------|
|-----------------------------------------|--555-3-333-555-3-333-|
Pre-chorus:
|------|
|------|
|------|
|--1~--|

Chorus:
|---------------------------------------------------|
|---------------------------------------------------|
|--3------33-0-00-6---------------------------------|	x2
|----1-11-----------6-66-5-5-5-5-5-5\4\1-1-1-1-1-1-1|

Verse

Chorus

Bridge:
|----------------------------------|----------------------------------|
|----------------------------------|----------------------------------|
|----------7-7-7-7---------5-5-5-5-|----------3-3-3-3-2-2-2-2-22222222|	x2
|--5-5-5-5---------3-3-3-3---------|--5-5-5-5-------------------------|

               x4              1.2.3.                4.
|---------------|------------------|------------------|
|----2---2------|------------------|------------------|
|--2---2---02-2-|------------------|------------------|
|---------------|--333333333333333-|--111111111111111-|

Chorus

Ending:
|-------------------------------|------------------|------|
|-------------------------------|------------------|------|
|-------------------------------|------------------|--3~--|
|--555-3-333-555-3-333-555-3-333|--111111111111111-|------|



RED PLANET

Intro:
|-----------|
|-----------|
|-------7\--|
|--/4p0-----|

Verse:                                 x4
|---------------------------------------|
|---------------------------------------|
|---------------------------------------|
|--0-0-0000-4-44-444-2-2-2222-4-4-5-555-|

Chorus
                                                      x2       1.          2.
|------------------------------------------------------|--------|-----------|
|------------------------------------------------------|--------|--------12-|
|------------------------------------------------------|--7-9---|--10-12----|
|-7-777777-7-77-777-5-555-555-555555-7-777777-7-77-777-|------7-|-----------|

Verse x2

Chorus

Verse

Break:
|------|
|------|
|------|
|--0~--|

Verse x2

Chorus


EMPTINESS IS A MULE

Intro:                                      x2
|--------------------------------------------|
|-------------------------------97-----------|
|----2-4-4-4-4-4-/11-7-7-7-7-7-7--11-9-11----|
|--4--------------------------------------7--|

Intro verse (rest)

Intro x1

Pre-chorus:                   x4
|--------------|---------------|
|--------------|---------------|
|--------------|---------------|
|--4-44-444----|-7-7-7-7-7-7-5-|

Verse:                                                       x4
|--------------------------------------------------------------|
|--------------------------------------------------------------|
|----8-9-11-9-8-----8-9-11-13-11---8-9-11-9-8-----8-9-11-1111--|
|--9------------9-9--------------9------------9-9--------------|

Pre-chorus (starts on second bar of figure this time)

Chorus:                         x2
|---------------------------------|
|----------88-6-3-----------------|
|------66--------44444444---------|
|--44---------------------2~-2~-4-|
Verse x4

Pre-chorus (starts on second bar of figure)

Chorus

Build-ups in the bridge:
|-------------------|
|-------------------|
|-------------------|
|--7777777777777777-|

Pre-chorus (starts on second bar of figure)

Chorus

Break

Chorus

-=End=-

            
            
Suggest correction
Creating personal tab
Creating personal tab
You can edit any tab online and save it as your Personal.

You can edit, replace or remove any tab part or add personal notes – all changes will be seen only by you.

Personal tabs can be accessed anytime from any device, even offline.
Learn more »
Give kudos to tab author, rate the tab!
1 2 3 4 5
comments
print report bad tab
guest
You may want to rate the tab now too:
select rating
Wanna post a correction for this tab? Suggest correction