Oops, an error
Loading. Please wait.

Lopsided tab

version 1
version 1

Whole song

Interactive

6,023 views 12 this week
2 commentsread comments
1 2 3 4 5
x 5
add to favorites
×
Save as Personal and add changes to this tab that will be seen only by you. Learn more ›
×
You can save this tab as Personal to edit and correct it or add notes. All changes will be seen only by you. Learn more »
launch autoscroll
font size
0
reset
how to read this tab
guitar tuner
edit
Autoscroll
slow
fast
+/-
esc
set tempo
stop
Author
-----------------------------------------------------------------------------
                           Lopsided by At The Drive-In
-----------------------------------------------------------------------------
Tabbed by: Isaac Yankeem Steffenboytoyboy

Tuning: standart tuning

1st part (guitar 1)
e|---------------------------------------------------------|
B|---------------------------------------------------------|
G|------666-666-666-666---9 9 9----------------------------| 3x
D|-777--777-777-777-777---9 9 9--777-777-777-777-777-------|
A|-555-(666-666-666-666)--9 9 9--555-555-555-555-555-------|
E|-333--777-777-777-777--101010--333-333-333-333-333-------|


2nd part (guitar 1)
e|(555..........)--(333...........)---------------------------------------|
B|(555..........)--(333...........)---------------------------------------|
G|-777...........--(333...........)---------------------------------------|4x
D|-777a few times---555...........-I think the powerchords are enough, but|
A|-555...........---555a few times-----try on your own, what you like most|
E|(555..........)---333...........----------------------------------------|

(guitar 2)
e|-----------------14-----------10-----------14-|
B|----10------10-------10-----------10----------|
G|--------11---------------11-----------11------| 4x
D|----------------------------------------------|
A|----------------------------------------------|
E|----------------------------------------------|

- 1st part 3x -
- 2nd part 4x (both guitars) -
- 2nd part 4x (guitar 1) and guitar 2 plays:

e|-14-----------10----------|
B|-----10-----------10------|
G|---------11-----------11--| 4x
D|--------------------------|
A|--------------------------|
E|--------------------------|

3rd part (I think both guitars)
e|-------------------|
B|-------------------|
G|-6~-/9-------------|
D|-7~-/9--777....555-| 4x and let ring
A|-5~-/7--555....555-|
E|--------333....333-|

- 2nd part 4x (both guitars) -

guitar 1 (optional)
E|-10-8-7-5-3-2-0-5-|

guitar 2
e|-14-----------10----------|
B|-----10-----------10------|
G|---------11-----------11--| 4x
D|--------------------------|
A|--------------------------|
E|--------------------------|

- 3rd part 4x - 

outro

guitar 1
e|----|
B|----|
G|-6--| follow through the end of the guitar part with this chord
D|-7--|
A|-5--|
E|----|

guitar 2
E|-7~--3~--7~--3~--7~-|


nice song... 
I did tap it out on my way and it sounds not so bad(I think *lol*). 
so...have a nice day!

            
            
Suggest correction
Creating personal tab
Creating personal tab
You can edit any tab online and save it as your Personal.

You can edit, replace or remove any tab part or add personal notes – all changes will be seen only by you.

Personal tabs can be accessed anytime from any device, even offline.
Learn more »
comments
print report bad tab
2 comments total.
0 reply
nay-palm 205 Nov 12, 2005 06:56 PM

nice tab man

0 reply
rexel22 30 May 24, 2008 08:21 AM

I think this sounds more accurate for the intro/verse

E|-----------------------------------------------|
B|-----------------------------------------------|
G|--2-2-2---6-6-6--6-6-6--6-6-6----9--9--9-------|
D|--0-0-0---0-0-0--0-0-0--0-0-0----0--0--0-------|
A|--x-x-x---x-x-x--x-x-x--x-x-x----x--x--x-------|
E|--3-3-3---7-7-7--7-7-7--7-7-7---10-10-10-------|

guest
You may want to rate the tab now too:
select rating
Wanna post a correction for this tab? Suggest correction