Oops, an error
Loading. Please wait.

Mannequin Republic bass

version 2
version 2

Whole song

Interactive

584 views 1 this week
no commentswrite comment
1 2 3 4 5
2 more votes to show rating
add to favorites
×
Save as Personal and add changes to this tab that will be seen only by you. Learn more ›
×
You can save this tab as Personal to edit and correct it or add notes. All changes will be seen only by you. Learn more »
launch autoscroll
font size
0
reset
guitar tuner
edit
Autoscroll
slow
fast
+/-
esc
set tempo
stop
AT THE DRIVE-IN - MANNEQUIN REPUBLIC, ON BASS

THERE ARE A FEW TABS OF THIS SONG ABOUT, NONE OF WHICH ARE ANYWHERE NEAR ACCURATE.
IT's DROP-D AND THESE ARE THE RIFFS. I'M CRAP AT WRITING TABS SO IT'S A LITTLE 
COMPLICATED, AND
NOT VERY PROFESSIONAL OR WHATEVER BUT ALL THE NOTES ARE 100% CORRECT.
THE ORDER OF THE RIFFS IS BELOW, WORK IT OUT BY LISTENING TO THE TRACK :)


RIFF 1

G--------------------------------------------------------------------------|
D--------------------------------------------------------------------------|
A--------------------------------------------------------------------------|
D-2--0-2-------------------------------------------------------------------|

RIFF 2A                                 RIFF 2B


G------------------------------------|-------------------------------------|
D----------9-------------------------|------9------------------------------|
A--3/777777-7--------------------5555|777777-7--------------------5555-----|
D------------88888888999999997777----|--------88888888999999997777---------|

RIFF 3

G--------------------------------------------------------------------------|
D--------------------------------------------------------------------------|
A-----------0-2----------4-4-----------------------------------------------|
D--6/222222-----4/000000---------------------------------------------------|

RIFF 4


G--------------------------------------------------------------------------|
D--------------------------------------------------------------------------|
A-7/-----------------------------------------------------------------------|
D----1-2-1-1111------------------------------------------------------------|

RIFF 5


G--------------------------------------------------------------------------|
D--------------------------------------------------------------------------|
A---------2222222----------------------------------------------------------|
D-2--0-222---------2--0-2220000000-----------------------------------------|

RIFF 6


G-9------8------7------5---------------------------------------------------|
D--------------------------------------------------------------------------|
A-----------------------------222222222222222/--SLIDE INTO RIFF 2B (MAIN)--|
D--------------------------------------------------------------------------|




SONG ORDER

RIFF 1 X 4
RIFF 2A X 1
RIFF 2B X 5
RIFF 1 X 4
RIFF 2A X 1
RIFF 2B X 3
RIFF 3 X 4
RIFF 4 X 4
RIFF 1 X 2
RIFF 5 X 1
RIFF 6 X 1
RIFF 2B X 4
RIFF 3 X 4
RIFF 1 X 2
RIFF 5 X 4
RIFF 1 X 2

            
            
Suggest correction
Creating personal tab
Creating personal tab
You can edit any tab online and save it as your Personal.

You can edit, replace or remove any tab part or add personal notes – all changes will be seen only by you.

Personal tabs can be accessed anytime from any device, even offline.
Learn more »
Give kudos to tab author, rate the tab!
1 2 3 4 5
comments
print report bad tab
guest
You may want to rate the tab now too:
select rating
Wanna post a correction for this tab? Suggest correction