Oops, an error
Loading. Please wait.

Napoleon Solo tab

version 2
version 2

Whole song

Interactive

20,971 views 21 this week
8 commentsread comments
1 2 3 4 5
x 15
add to favorites
×
Save as Personal and add changes to this tab that will be seen only by you. Learn more ›
×
You can save this tab as Personal to edit and correct it or add notes. All changes will be seen only by you. Learn more »
launch autoscroll
font size
0
reset
how to read this tab
guitar tuner
edit
Autoscroll
slow
fast
+/-
esc
set tempo
stop
Author
[Intro/Verse] 
(Guitar 2) (Jim)
e|--0-7-10-7-0---|
B|---------------|
G|-9-------------|  (x24)
D|---------------|
A|---------------|
E|---------------|

[Intro/Verse] 
(Guitar 1) 
(Omar)
e|--0-7-10-7-0--0-5-7-5-0--0-5-7-5-0--0-5-7-5-0---|
B|------------------------------------------------|
G|-9----------7----------5----------7-------------| (x6)
D|------------------------------------------------|
A|------------------------------------------------|
E|------------------------------------------------|

[2nd Part of Verse] 
(Guitar 2) 
(Jim)
e|--0---0---0---0--|
B|-7-7-8-8-7-7-5-5-|
G|-----------------|    (x4)
D|-----------------|
A|-----------------|
E|-----------------|

[2nd Part of Verse] 
(Guitar 1) 
(Omar)
e|---------------------------------------10-----10-----10-----10----|
B|--8---8----8----8---8----8----8---8-------------------------------|
G|-9-9-9--9-9--9-9-9-7-7-7--7-7--7-7-7-12--12-12--12-12--12-12--12--|
D|------------------------------------------------------------------|
A|------------------------------------------------------------------|
E|------------------------------------------------------------------|

e|---------15-14-14---|
B|---13-----13-13-13--|
G|-12--12----12-12-12-|
D|--------------------|
A|--------------------|
E|--------------------|

[3rd Part of Verse] 
(Guitar 2) 
(Jim)
e|--0---0---0---0--|
B|-7-7-8-8-7-7-5-5-|
G|-----------------|    (x4)
D|-----------------|
A|-----------------|
E|-----------------|

e|--0---0---0----0---|
B|-7-7-8-8-7-7-10-8--|
G|-------------------|  (x4)
D|-------------------|
A|-------------------|
E|-------------------|

[3rd Part of Verse] 
(Guitar 1) 
(Omar)
e|---7--------10-----10-----10-----10----10-------15-14-14---|
B|--8-----8--8--8-----------------------------13---13-13-13--|
G|-9--9--7--7------12--12-12--12-12--12-12--12--12--12-12-12-|
D|-----------------------------------------------------------|  (x2)
A|-----------------------------------------------------------|
E|-----------------------------------------------------------|

[Pre-Chorus] 
(Guitar 1) 
(Omar)
e|--0-7-10-7-0---0-7-10-0--|
B|-------------------------|
G|-9-----------9-----------|
D|-------------------------|
A|-------------------------|
E|-------------------------|

[Chorus] 
(Guitar 2) 
(Jim)
    Em     Bm     D      C
e|-0------2------2------0------|
B|-0------3------3------1------|
G|-0-(x6)-4-(x6)-2-(x6)-0-(x6)-|  (x4)
D|-2------4------0------2------|
A|-2------2------x------3------|
E|-0------x------x------0------|

[Chorus] 
(Guitar 1) 
(Omar)
e|--------------------------------------------------------|
B|-7-7-7-8-8-8-7-7-7-8-8-8-10-10-10-12-12-12-----------10-|
G|------------------------------------------12-12-12-12---|
D|--------------------------------------------------------|  (x4)
A|--------------------------------------------------------|
E|--------------------------------------------------------|

[Verse 2] 
(Guitar 2) 
(Jim)
e|--0-7-10-7-0--0-5-7-5-0--0-5-7-5-0--0-5-7-5-0---|
B|------------------------------------------------|
G|-9----------7----------5----------7-------------| (x4)
D|------------------------------------------------|
A|------------------------------------------------|
E|------------------------------------------------|

[Verse 2] 
(Guitar 1) 
(Omar) 
(Strummed lightly - light distortion)
    Em D  C C  C C  C C
e|-0--2--0-0--0-0--0-0--------|
B|-0--3--1-1--1-1--1-1--------| (x4) (be Sure to play the C chords accented with
G|-0--2--0-0--0-0--0-0--------|       drums and bass in the sets of 2 and for the
D|-2--0--2-2--2-2--2-2--------|       intro into the next chorus)
A|-2--x--3-3--3-3--3-3--------|
E|-0--x--0-0--0-0--0-0--------|

[Chorus] 
(Guitar 2) 
(Jim)
    Em     Bm     D      C
e|-0------2------2------0------|
B|-0------3------3------1------|
G|-0-(x6)-4-(x6)-2-(x6)-0-(x6)-|  (x4)
D|-2------4------0------2------|
A|-2------2------x------3------|
E|-0------x------x------0------|

[Chorus] 
(Guitar 1) 
(Omar)
e|--------------------------------------------------------|
B|-7-7-7-8-8-8-7-7-7-8-8-8-10-10-10-12-12-12-----------10-|
G|------------------------------------------12-12-12-12---|
D|--------------------------------------------------------|  (x4)
A|--------------------------------------------------------|
E|--------------------------------------------------------|

[Interlude] 
(Guitar 1) 
(Omar)
e|---19--19----5--7----0-----0-----0----0-----------------------------|
B|--19--19-----7--8--12-12-12-12-10-10-8-0----------------------------|
G|-19--19------7--9-------------------------  (x5)- only play the 19--| fret
D|--------------------------------------------------------------------|        harmonics first time
A|--------------------------------------------------------------------|        listen to the song and
E|--------------------------------------------------------------------|        you will hear

      -After 5th time- (intro into outro)
e|-0--0--0--0--0--0--0--0--0--0--0--0---|
B|-10-10-10-12-12-12-13-13-13-13-13-13--|
G|--------------------------------------|
D|--------------------------------------|
A|--------------------------------------|
E|--------------------------------------|

Interlude -  Guitar 2 (Jim)

e|--------------------------------|
B|-7-0---7-0----7-8-8-7-8-8-7-----|
G|----7-0---7-0--------------9-7--| (x5)
D|--------------------------------|
A|--------------------------------|
E|--------------------------------|

e|--------------0--0--0--0--0--0--0--0--0--|
B|-7-0---7-0---12-12-12-13-13-13-13-13-13--|
G|----7-0---7-0----------------------------|
D|-----------------------------------------|
A|-----------------------------------------|
E|-----------------------------------------|

[Bridge] 
(Guitar 1) 
(Omar)
    Em D  C C  C C  C C
e|-0--2--0-0--0-0--0-0--------|
B|-0--3--1-1--1-1--1-1--------| (x4) (be Sure to play the C chords accented with
G|-0--2--0-0--0-0--0-0--------|       drums and bass in the sets of 2)
D|-2--0--2-2--2-2--2-2--------|
A|-2--x--3-3--3-3--3-3--------|
E|-0--x--0-0--0-0--0-0--------|

[Bridge] 
(Guitar 2) 
(Jim)
e|--0-7-10-7-0--0-5-7-5-0--0-5-7-5-0--0-5-7-5-0---|
B|------------------------------------------------|
G|-9----------7----------5----------7-------------| (x4)
D|------------------------------------------------|
A|------------------------------------------------|
E|------------------------------------------------|

[Outro] 
(Both Guitars)
    Em     Bm     D      C
e|-0------2------2------0-------|
B|-0------3------3------1-------|
G|-0-(x6)-4-(x6)-2-(x6)-0-------|(x6)-  (x4) - on the 4th time end on D
D|-2------4------0------2-------|
A|-2------2------x------3-------|
E|-0------x------x------0-------|


************************************

| x  Dead note

************************************

            
            
Suggest correction
Creating personal tab
Creating personal tab
You can edit any tab online and save it as your Personal.

You can edit, replace or remove any tab part or add personal notes – all changes will be seen only by you.

Personal tabs can be accessed anytime from any device, even offline.
Learn more »
comments
print report bad tab
8 comments total. Showing first comments.
0 reply
cafendergirl 10 Jul 24, 2005 08:00 PM

Thank you so much for this tab... I love this song and I can't find anything wrong with it, thanks.

0 reply
saygdntmngdby 15 Sep 26, 2005 03:52 PM

wow awesome tab, awesome song, awesome band! good job!

-2 reply
|T4Z| 1,696 Aug 03, 2006 07:25 PM

sI didn't no anyone else new abou this band

guest
You may want to rate the tab now too:
select rating
Wanna post a correction for this tab? Suggest correction