Oops, an error
Loading. Please wait.

One Armed Scissor Bass Tab

version 1
version 1

Whole song

22,114 views 27 this week
4 commentsread comments
1 2 3 4 5
x 13
add to favorites
launch autoscroll
font size
0
reset
guitar tuner
backing track
0:00
0:00
×
Best way to learn
"One Armed Scissor"
Autoscroll
slow
fast
+/-
esc
set tempo
stop
Artist: At The Drive In
Song  : One Armed Scissor
Album : Relationship of Command
Tab by: Robin Tayor & Mike Davies

E-mail me with any comments you may have at DaBassist@flea.co.uk


INTRO
G ||--------------|-------------||
D4||--------------|-------------||
A4||------------7-|------------7||
E ||-0-0-0-0-0----|-0-0-0-0-0---||

VERSE (time change)
G ||-------|-------|-------|-------|------------|------------|------------|-----------||
D3||-------|-------|-------|-------|-7--7-7-7-7-|-5--5-5-5-5-|-4--4-4-4-4-|-2--2-2-2-2||
A4||-------|-------|-------|-------|------------|------------|------------|-----------||
E ||-5-----|-5-----|-5-----|-5-5---|------------|------------|------------|-----------|| X4

CHORUS 
G ||--------------|--------------|-----------------|----------------||
D4||--------------|--------------|-----------------|----------------||
A4||------------7-|-5-5-5-5-5----|-8-8-8-8-8-8-8-8-|----------------||
E ||-0-0-0-0-0----|------------7-|-----------------|-8-8-8-8-8-8-8-8|| X4

G ||--------|--------|--------|--------|--------|--------|--------|--------||
D4||--------|--------|--------|--------|-7-7-7-7|-5-5-5-5|-4-4-4-4|-2-2-2-2||
A4||--------|--------|--------|-3-3----|--------|--------|--------|--------||
E ||-5---5--|---3--5-|-5-----5|-----5-3|--------|--------|--------|--------|| X2

VERSE #2
G ||--------|--------|--------|--------|--------|--------|--------|-------||
D4||--------|--------|--------|--------|--------|--------|--------|----7--||
A4||--------|--------|--------|--------|--------|--------|--------|5-7---7||
E ||-5---5--|------0-|--3---3-|------0-|-2---2--|-2-2-3-2|-0----0-|-------|| X2

G ||--------|--------|--------|--------|--------|--------|--------|-------||
D4||--------|-----5--|--------|--------|--------|--------|--------|----7--||
A4||--------|-7------|--------|--------|--------|--------|--------|5-7---7||
E ||-5---5--|------0-|--3---3-|------0-|-2---2--|-2-2-3-2|-0----0-|-------|| X2

G ||--------|--------|--------|--------|--------|--------|--------|-------||
D4||--------|--------|--------|--------|--------|--------|--------|----7--||
A4||--------|--------|--------|--------|--------|--------|--------|5-7---7||
E ||-5---5--|------0-|--3---3-|------0-|-2---2--|-2-2-3-2|-0----0-|-------|| X2

G ||--------|--------|--------|--------|--------|--------|--------|-------||
D4||--------|--------|--------|--------|--------|--------|--------|----7--||
A4||--------|--------|--------|--------|--------|--------|--------|5-7---7||
E ||-5-5-5-5|------0-|-3-3-3-3|--------|-2-2-2-2|-2-2-3-2|-0-0--0-|-------||

                                                      (play these bars X2)
G ||---------|------|--------|------|---------|--------|--------|-------||
D4||---------|------|--------|------|---------|--------|--------|-------||
A4||---------|------|--------|------|---------|--------|--------|-------||
E ||-5-5-5-5-|------|3-3-3-3-|------|-2-2-2-2-|2-2-3-2-|0-0-0-0-|0-0-0-0||

CHORUS 
G ||--------------|--------------|--------|--------|--------|--------||
D4||--------------|--------------|--------|--------|--------|--------||
A4||------------7-|-5-5-5-5-5----|-8-8-8-8|-8-8-8-8|--------|--------||
E ||-0-0-0-0-0----|------------7-|--------|--------|-8-8-8-8|-8-8-8-8|| X4

MIDDLE
G ||--------|--------|-----------|------------|--------|----------|--------|--------||
D4||--------|--------|-----------|------------|--------|----------|--------|--------||
A4||--------|--------|-x-10-10-10|-10-10-10-10|--------|-10-10----|--------|--------||
E ||-0-0-0-0|-0-0-0-0|-----------|------------|-8-8-8-8|-------8-8|-7-7-7-7|-7-7-7-7||

CHORUS 
G ||--------------|--------------|--------|--------|--------|--------||
D4||--------------|--------------|--------|--------|--------|--------||
A4||------------7-|-5-5-5-5-5----|-8-8-8-8|-8-8-8-8|--------|--------||
E ||-0-0-0-0-0----|------------7-|--------|--------|-8-8-8-8|-8-8-8-8|| X4

OUTRO
G ||--------|--------|--------|--------|
D4||--------|--------|--------|--------|
A4||-8-8-8-8|-8-8-8-8|--------|--------|
E ||--------|--------|-8-8-8-8|-8-8-8-8| X2

G ||--------------||
D4||--------------||
A4||------------7-||
E ||-0-0-0-0-0----||
Suggest correction
comments
print report bad tab
4 comments total. Showing first comments.
+1 reply
Peeve 73 Aug 20, 2008 03:57 PM

You had the beginning of the middle right...here's what it should be:

MIDDLE
G--------|--------|-----------|------------|--------|----------|
D--------|--------|-----------|------------|--------|----------|
A--------|--------|-x-10-10-10|-10-10-10-10|--------|-10-10----|
E-0-0-0-0|-0-0-0-0|-----------|------------|-8-8-8-8|-------8-8|

G--------|--------||
D--------|--------||
A--------|--------||
E-7-7-7-7|-7-7-7-7|| X5

G--------|--------|-----------|------------|--------|--------|
D--------|--------|-----------|------------|--------|--------|
A--------|--------|-x-10-10-10|-10-10-10-10|--------|--------|
E-0-0-0-0|-0-0-0-0|-----------|------------|-8-8-8-8|-8-8-8-8|

G--------|--------||
D--------|--------||
A--------|--------||
E-7-7-7-7|-7-7-7-7||

G--------|--------|-----------|------------|----|----------|
D--------|--------|-----------|------------|----|----------|
A--------|--------|-x-10-10-10|-10-10-10-10|----|---10---10|
E-0-0-0-0|-0-0-0-0|-----------|------------|-8-8|-8----8---|

G----|--------||
D----|--------||
A----|---9---9||
E-7-7|-7---7--||

G--------|--------|-----------|------------|----|----------|
D--------|--------|-----------|------------|----|----------|
A--------|--------|-x-10-10-10|-10-10-10-10|----|---10---10|
E-0-0-0-0|-0-0-0-0|-----------|------------|-8-8|-8----8---|

G--------|--------||
D--------|--------||
A--------|--------||
E-7-7-7-7|-7-7-7-7||

0 reply
duster6pk 41 Jun 18, 2009 08:16 AM

This tab seems to be good. Great work.

0 reply
beastlycoconut 10 Mar 27, 2016 11:05 AM

wat is up with the tuning, A4 D4?

guest
You may want to rate the tab now too:
select rating
Wanna post a correction for this tab? Suggest correction