Oops, an error
Loading. Please wait.

Terminal Spirit Disease tab

version 2
version 2

Whole song

Interactive

569 views 1 this week
no commentswrite comment
1 2 3 4 5
3 more votes to show rating
add to favorites
×
Save as Personal and add changes to this tab that will be seen only by you. Learn more ›
×
You can save this tab as Personal to edit and correct it or add notes. All changes will be seen only by you. Learn more »
launch autoscroll
font size
0
reset
how to read this tab
guitar tuner
edit
Autoscroll
slow
fast
+/-
esc
set tempo
stop
#----------------------------------PLEASE NOTE---------------------------------#
#This file is the author's own work and represents their interpretation of the #
#song. You may only use this file for private study, scholarship, or research. #
#------------------------------------------------------------------------------#

TERMINAL SPIRIT DISEASE
As recorded by At the Gates
(From the 1994 Album TERMINAL SPIRIT DISEASE)

Transcribed by Erik Dietrich/Anders Bjorler
        

Words and Music by At the Gates

Gtr I (B E A D F# B) - '1'
Gtr II (B E A D F# B) - '2'
Gtr III (B E A D F# B) - 'Solo'

   Intro
    Q=203
    N.C.
   3/4
    Gtr I
    E E E E E E   E E E E E E   E E E E E E    E  E  E  E  E  E
||--------------|-------------|-------------|-------------------|
||o-------------|-------------|-------------|-------------------|
||--9-9-9-9-9-9-|-9-9-9-9-9-9-|-9-9-9-9-9-9-|-11-11-11-12-12-12-|
||--------------|-------------|-------------|-------------------|
||o-7-7-7-7-7-7-|-7-7-7-7-7-7-|-7-7-7-7-7-7-|--9--9--9-10-10-10-|
||--------------|-------------|-------------|-------------------|
|
|   Gtr II
|   E E E E E E   E E E E E E   E E E E E E    E  E  E  E  E  E
||--------------|-------------|-------------|-------------------|
||o-------------|-------------|-------------|-------------------|
||--9-9-9-9-9-9-|-7-7-7-7-7-7-|-5-5-5-5-5-5-|--5--5--5--5--5--5-|
||--------------|-------------|-------------|-------------------|
||o-7-7-7-7-7-7-|-5-5-5-5-5-5-|-3-3-3-3-3-3-|--3--3--3--3--3--3-|
||--------------|-------------|-------------|-------------------|


  E E E E E E   E E E E E E   E E E E E E   E E E E E E
|-------------|-------------|-------------|--------------||
|-------------|-------------|-------------|-------------o||
|-5-5-5-5-5-5-|-5-5-5-5-5-5-|-5-5-5-5-5-5-|-5-5-5-5-5-5--||
|-------------|-------------|-------------|--------------||
|-3-3-3-3-3-3-|-3-3-3-3-3-3-|-3-3-3-3-3-3-|-3-3-3-3-3-3-o||
|-------------|-------------|-------------|--------------||
|
| E E E E E E   E E E E E E   E E E E E E   E E E E E E
|-------------|-------------|-------------|--------------||
|-------------|-------------|-------------|-------------o||
|-5-5-5-5-5-5-|-4-4-4-4-4-4-|-------------|--------------||
|-------------|-------------|-7-7-7-7-7-7-|-7-7-7-7-7-7--||
|-3-3-3-3-3-3-|-2-2-2-2-2-2-|-------------|-------------o||
|-------------|-------------|-5-5-5-5-5-5-|-5-5-5-5-5-5--||


    Q.=176
    N.C.(Em)
   12/8
    PM-|                     PM-|
    Q  E E E E E E E E E E   Q  E E E E E E E E E  E
||-------------------------|--------------------------|
||o------------------------|--------------------------|
||-------------------------|--------------------------|
||-------------------------|--------------------------|
||o------------2-2-2-2-2-2-|------------3-3-3-3-3--3--|
||--0--0-0h2h3-------------|-0--0-0h2h3---------------|
|
|   PM-|                     PM-|
|   Q  E E E E E E E E E E   Q  E E E E E E E E E  E
||-------------------------|--------------------------|
||o------------------------|--------------------------|
||-------------------------|--------------------------|
||-------------------------|--------------------------|
||o------------5-5-5-5-5-5-|------------7-7-7-9-9-10--|
||--0--0-0h2h3-------------|-0--0-0h2h3---------------|


  PM-|                     PM-|                PM
  Q  E E E E E E E E E E   Q  E E E E E E E Q  E
|------------------------|------------------------||
|------------------------|-----------------------o||
|------------------------|------------------------||
|------------------------|------------------------||
|------------2-2-2-2-2-2-|------------2-2-2------o||
|-0--0-0h2h3-------------|-0--0-0h2h3-------3--2--||
|
| PM-|                     PM-|                PM
| Q  E E E E E E E E E E   Q  E E E E E E E Q  E
|------------------------|------------------------||
|------------------------|-----------------------o||
|------------------------|------------------------||
|------------------------|------------------------||
|------------5-5-5-5-5-5-|------------2-2-2------o||
|-0--0-0h2h3-------------|-0--0-0h2h3-------3--2--||


 Verse
  Q.=172
  $
  E5
 9/8
  Gtrs I, II
  Q  E Q.   Q.     Q  E Q.   Q.     Q  E Q.   Q.     Q  E Q  E   Q.
|----------------|----------------|----------------|-------------------|
|----------------|----------------|----------------|-------------------|
|----------------|----------------|----------------|-------------------|
|----------------|----------------|----------------|-------------------|
|-2--2-----------|-2--2-----------|-2--2-----------|-2--2--------------|
|-0--0-----------|-0--0-----------|-0--0-----------|-0--0----0-/12\----|


  N.C.(G)
  PM-|     PM       PM-|     PM       PM-|     PM       PM-|     PM
  Q  E E E E Q.     Q  E E E E Q.     Q  E E E E Q.     Q  E E E E Q.
|-----------------|-----------------|-----------------|-----------------|
|-----------------|-----------------|-----------------|-----------------|
|-----------------|-----------------|-----------------|-----------------|
|------8S7---7----|------8S7---7----|------8S7---7----|------8S7---5----|
|-----------------|-----------------|-----------------|-----------------|
|-3--3-----3------|-3--3-----3------|-3--3-----3------|-3--3-----3------|


  N.C.(Em)
  PM-|     PM       PM-|     PM       PM-|     PM       PM-|     PM
  Q  E E E E Q.     Q  E E E E Q.     Q  E E E E Q.     Q  E E E E Q.
|-----------------|-----------------|-----------------|-----------------|
|-----------------|-----------------|-----------------|-----------------|
|-----------------|-----------------|-----------------|-----------------|
|------5S4---4----|------5S4---4----|------5S4---4----|------5S4---2----|
|-----------------|-----------------|-----------------|-----------------|
|-0--0-----0------|-0--0-----0------|-0--0-----0------|-0--0-----0------|


  N.C.(G)
  PM-|     PM       PM-|     PM       PM-|     PM       PM-|     PM
  Q  E E E E Q.     Q  E E E E Q.     Q  E E E E Q.     Q  E E E E Q.
|-----------------|-----------------|-----------------|-----------------|
|-----------------|-----------------|-----------------|-----------------|
|-----------------|-----------------|-----------------|-----------------|
|------8S7---7----|------8S7---7----|------8S7---7----|------8S7---5----|
|-----------------|-----------------|-----------------|-----------------|
|-3--3-----3------|-3--3-----3------|-3--3-----3------|-3--3-----3------|


   Chorus
    Q.=169
    E5                                 D5
    Gtr I
    Q   E  E E E  Q.      Q   E  E E E Q.
||---------------------|--------------------|
||o--------------------|--------------------|
||---------------------|--------------------|
||---------------------|--------------------|
||o-7---7-10S9-9--9----|--7---7-10S9-9-9----|
||---------------------|--------------------|
|
|   Gtr II
|   H.           +Q.     +H.           Q.
||---------------------|--------------------|
||o--------------------|--------------------|
||--9------------(9)---|-(9)-----------7----|
||--9------------(9)---|-(9)-----------7----|
||o-7------------(7)---|-(7)-----------5----|
||---------------------|--------------------|


  C5
  Q   E  E E E  Q.      E   E  E E E E  Q.
|--------------------|------------------------|
|--------------------|------------------------|
|--------------------|------------------------|
|--------------------|-10--10-10-9-9-9--7-----|
|-7---7-10S9-9--9----|------------------------|
|--------------------|------------------------|
|
| H.           +Q.     +H.             +Q.
|--------------------|------------------------|
|--------------------|------------------------|
|-5------------(5)---|-(5)-------------(5)----|
|-5------------(5)---|-(5)-------------(5)----|
|-3------------(3)---|-(3)-------------(3)----|
|--------------------|------------------------|


  E5                                 D5
  Q   E  E E E  Q.      Q   E  E E E Q.
|--------------------|--------------------|
|--------------------|--------------------|
|--------------------|--------------------|
|--------------------|--------------------|
|-7---7-10S9-9--9----|--7---7-10S9-9-9----|
|--------------------|--------------------|
|
| H.           +Q.     +H.           Q.
|--------------------|--------------------|
|--------------------|--------------------|
|-9------------(9)---|-(9)-----------7----|
|-9------------(9)---|-(9)-----------7----|
|-7------------(7)---|-(7)-----------5----|
|--------------------|--------------------|


  C5                   G5
  Q   E  E E E  Q.      Q.   Q.    E  Q
|--------------------|--------------------||
|--------------------|-------------------o||
|--------------------|--------------------||
|--------------------|-------------7S=9---||
|-7---7-10S9-9--9----|-10----9-----------o||
|--------------------|--------------------||
|
| H.           +Q.      H.        +Q.
|--------------------|--------------------||
|--------------------|-------------------o||
|-5------------(5)---|--------------------||
|-5------------(5)---|--5---------(5)-----||
|-3------------(3)---|--5---------(5)----o||
|--------------------|--3---------(3)-----||


 Main Riff
  Q.=176
  N.C.(Em)
 12/8
  PM-|                     PM-|
  Q  E E E E E E E E E E   Q  E E E E E E E E E  E
|------------------------|-------------------------|
|------------------------|-------------------------|
|------------------------|-------------------------|
|------------------------|-------------------------|
|------------2-2-2-2-2-2-|------------3-3-3-3-3--3-|
|-0--0-0h2h3-------------|-0--0-0h2h3--------------|
|
| PM-|                     PM-|
| Q  E E E E E E E E E E   Q  E E E E E E E E E  E
|------------------------|-------------------------|
|------------------------|-------------------------|
|------------------------|-------------------------|
|------------------------|-------------------------|
|------------5-5-5-5-5-5-|------------7-7-7-9-9-10-|
|-0--0-0h2h3-------------|-0--0-0h2h3--------------|


  PM-|                     PM-|                PM
  Q  E E E E E E E E E E   Q  E E E E E E E Q  E
|------------------------|-----------------------|
|------------------------|-----------------------|
|------------------------|-----------------------|
|------------------------|-----------------------|
|------------2-2-2-2-2-2-|------------2-2-2------|
|-0--0-0h2h3-------------|-0--0-0h2h3-------3--2-|
|
| PM-|                     PM-|                PM
| Q  E E E E E E E E E E   Q  E E E E E E E Q  E
|------------------------|-----------------------|
|------------------------|-----------------------|
|------------------------|-----------------------|
|------------------------|-----------------------|
|------------5-5-5-5-5-5-|------------2-2-2------|
|-0--0-0h2h3-------------|-0--0-0h2h3-------3--2-|


  PM-|                     PM-|
  Q  E E E E E E E E E E   Q  E E E E E E E E E  E
|------------------------|-------------------------|
|------------------------|-------------------------|
|------------------------|-------------------------|
|------------------------|-------------------------|
|------------2-2-2-2-2-2-|------------3-3-3-3-3--3-|
|-0--0-0h2h3-------------|-0--0-0h2h3--------------|
|
| PM-|                     PM-|
| Q  E E E E E E E E E E   Q  E E E E E E E E E  E
|------------------------|-------------------------|
|------------------------|-------------------------|
|------------------------|-------------------------|
|------------------------|-------------------------|
|------------2-2-2-2-2-2-|------------7-7-7-9-9-10-|
|-0--0-0h2h3-------------|-0--0-0h2h3--------------|


  PM-|                     PM-|                PM
  Q  E E E E E E E E E E   Q  E E E E E E E Q  E
|------------------------|-----------------------|
|------------------------|-----------------------|
|------------------------|-----------------------|
|------------------------|-----------------------|
|------------2-2-2-2-2-2-|------------2-2-2------|
|-0--0-0h2h3-------------|-0--0-0h2h3-------3--2-|
|
| PM-|                     PM-|                PM
| Q  E E E E E E E E E E   Q  E E E E E E E Q  E
|------------------------|-----------------------|
|------------------------|-----------------------|
|------------------------|-----------------------|
|------------------------|-----------------------|
|------------2-2-2-2-2-2-|------------2-2-2------|
|-0--0-0h2h3-------------|-0--0-0h2h3-------3--2-|


   Intro Riff
    Q=203
    N.C.
   3/4
    E E E E E E   E E E E E E   E E E E E E    E  E  E  E  E  E
||--------------|-------------|-------------|-------------------|
||o-------------|-------------|-------------|-------------------|
||--9-9-9-9-9-9-|-9-9-9-9-9-9-|-9-9-9-9-9-9-|-11-11-11-12-12-12-|
||--------------|-------------|-------------|-------------------|
||o-7-7-7-7-7-7-|-7-7-7-7-7-7-|-7-7-7-7-7-7-|--9--9--9-10-10-10-|
||--------------|-------------|-------------|-------------------|
|
|   E E E E E E   E E E E E E   E E E E E E    E  E  E  E  E  E
||--------------|-------------|-------------|-------------------|
||o-------------|-------------|-------------|-------------------|
||--9-9-9-9-9-9-|-7-7-7-7-7-7-|-5-5-5-5-5-5-|--5--5--5--5--5--5-|
||--------------|-------------|-------------|-------------------|
||o-7-7-7-7-7-7-|-5-5-5-5-5-5-|-3-3-3-3-3-3-|--3--3--3--3--3--3-|
||--------------|-------------|-------------|-------------------|


                                                    D.S.
  E E E E E E   E E E E E E   E E E E E E   E E E E E E
|-------------|-------------|-------------|----------------||
|-------------|-------------|-------------|---------------o||
|-5-5-5-5-5-5-|-5-5-5-5-5-5-|-5-5-5-5-5-5-|-5-5-5-5-5-5----||
|-------------|-------------|-------------|----------------||
|-3-3-3-3-3-3-|-3-3-3-3-3-3-|-3-3-3-3-3-3-|-3-3-3-3-3-3---o||
|-------------|-------------|-------------|----------------||
|
| E E E E E E   E E E E E E   E E E E E E   E E E E E E
|-------------|-------------|-------------|----------------||
|-------------|-------------|-------------|---------------o||
|-5-5-5-5-5-5-|-4-4-4-4-4-4-|-------------|----------------||
|-------------|-------------|-7-7-7-7-7-7-|-7-7-7-7-7-7----||
|-3-3-3-3-3-3-|-2-2-2-2-2-2-|-------------|---------------o||
|-------------|-------------|-5-5-5-5-5-5-|-5-5-5-5-5-5----||


 Breakdown
  Q.=171
  N.C.
 12/8
  Gtrs I, II
           PM         PM           PM
  Q  E E E E Q.   E E E   Q.   E E E Q  Q  Q
|-----------------------|---------------------|
|-----------------------|---------------------|
|-----------------------|---------------------|
|-----------------------|---------------------|
|-----------------------|---------------2-----|
|-0--0-7S6-6-6----6S5-5-|-5----5S3-3-3-----3--|


           PM
  Q  E E E E Q.   E E E   Q  Q  Q  Q  Q  Q
|-----------------------|-------------------|
|-----------------------|-------------------|
|-----------------------|-------------------|
|-----------------------|-------------------|
|-----------------------|-5-----------7--5--|
|-0--0-7S6-6-6----6-7-6-|----6--5--3--------|


           PM         PM           PM
  Q  E E E E Q.   E E E   Q.   E E E Q  Q  Q
|-----------------------|---------------------|
|-----------------------|---------------------|
|-----------------------|---------------------|
|-----------------------|---------------------|
|-7--7------------------|---------------2-----|
|------7S6-6-6----6S5-5-|-5----5S3-3-3-----3--|


           PM
  Q.   E E E Q.   E E E   Q  Q  Q  Q  Q  Q
|-----------------------|-------------------|
|-----------------------|-------------------|
|-----------------------|-------------------|
|-----------------------|-------------------|
|-----------------------|-5-----------7--5--|
|-0----7S6-6-6----6-7-6-|----6--5--3--------|


 Bridge
  N.C.(Em)
 9/8
  Gtr I
  Q   Q  Q   Q  E   Q   Q  Q   Q   E   Q   Q  Q   Q  E   Q   Q  Q   Q.
|-----------------|------------------|-----------------|------------------|
|-----------------|------------------|-----------------|------------------|
|-----------------|------------------|-----------------|------------------|
|---------------9-|------------------|---------------9-|------------------|
|----10--9--10----|----10--9--10--10-|----10--9--10----|----10--9--10-----|
|-0---------------|-0----------------|-0---------------|-0----------------|
|
| Gtr II
| Q   Q  Q   Q  E   Q   Q  Q   Q   E   Q   Q  Q   Q  E   Q   Q  Q   Q.
|-----------------|------------------|-----------------|------------------|
|-----------------|------------------|-----------------|------------------|
|-----------------|------------------|-----------------|------------------|
|-----------------|------------------|-----------------|------------------|
|-----7--5---7--7-|-----7--5---7---7-|-----7--5---7--7-|-----7--5---7-----|
|-0---------------|-0----------------|-0---------------|-0----------------|


  N.C.(G)
  Q  Q  Q  Q  E   Q  Q  Q  Q  E   Q  Q  Q  Q  E   Q  Q  Q  Q.
|---------------|---------------|---------------|---------------|
|---------------|---------------|---------------|---------------|
|-------------7-|---------------|-------------7-|---------------|
|-5--8--7--8----|-5--8--7--8--8-|-5--8--7--8----|-5--8--7--8----|
|---------------|---------------|---------------|---------------|
|---------------|---------------|---------------|---------------|
|
| Q  Q  Q  Q  E   Q  Q  Q  Q  E   Q  Q  Q  Q  E   Q  Q  Q  Q.
|---------------|---------------|---------------|---------------|
|---------------|---------------|---------------|---------------|
|---------------|---------------|---------------|---------------|
|----5--3--5--5-|----5--3--5--5-|----5--3--5--5-|----5--3--5----|
|---------------|---------------|---------------|---------------|
|-3-------------|-3-------------|-3-------------|-3-------------|


 Guitar Solo
  N.C.(Em)
  Gtr III
  H.          Q.      E  E  E  E  E  E  Q.
|-------------------|--------------------------|
|-------------------|---------10-12-13-15------|
|-9-----------9-----|-9-11-12------------------|
|-------------------|--------------------------|
|-------------------|--------------------------|
|-------------------|--------------------------|
|
| Gtr I
| Q    Q  Q   Q   E   Q     Q     Q     Q    E
|-------------------|--------------------------|
|-------------------|--------------------------|
|-------------------|--------------------------|
|-----------------9-|--------------------------|
|-----10--9--10-----|------10-----9----10---10-|
|-0-----------------|-0------------------------|
|
| Gtr II
| Q    Q  Q   Q   E   Q     Q     Q     Q    E
|-------------------|--------------------------|
|-------------------|--------------------------|
|-------------------|--------------------------|
|-------------------|--------------------------|
|------7--5---7---7-|-------7-----5-----7----7-|
|-0-----------------|-0------------------------|


   E  E  E  Q    Q     Q      H       +S   S  +H
|--------------------------|-----------------------------|
|-13p12p10-13---12---------|-----------------------------|
|---------------------14---|-12------(12)-12-(12)--------|
|--------------------------|-----------------------------|
|--------------------------|-----------------------------|
|--------------------------|-----------------------------|
|
|  Q     Q    Q     Q    E    Q   Q    Q           Q.
|--------------------------|-----------------------------|
|--------------------------|-----------------------------|
|--------------------------|-----------------------------|
|------------------------9-|-----------------------------|
|-------10----9----10------|-----10----9----------10-----|
|--0-----------------------|--0--------------------------|
|
|  Q     Q    Q     Q    E    Q   Q    Q           Q.
|--------------------------|-----------------------------|
|--------------------------|-----------------------------|
|--------------------------|-----------------------------|
|--------------------------|-----------------------------|
|--------7----5-----7----7-|------7----5-----------7-----|
|--0-----------------------|--0--------------------------|


  N.C.(G)
    H.         +Q.       Q.     Q.     Q.
|---------------------|----------------------|
|-/15---------(15)----|----------------------|
|---------------------|-15-----14-----15-----|
|---------------------|----------------------|
|---------------------|----------------------|
|---------------------|----------------------|
|
|   Q   Q  Q    Q   E    Q   Q     Q   Q   E
|---------------------|----------------------|
|---------------------|----------------------|
|-------------------7-|----------------------|
|---5---8--7----8-----|--5---8-----7---8---8-|
|---------------------|----------------------|
|---------------------|----------------------|
|
|   Q   Q  Q    Q   E    Q   Q     Q   Q   E
|---------------------|----------------------|
|---------------------|----------------------|
|---------------------|----------------------|
|-------5--3----5---5-|------5-----3---5---5-|
|---------------------|----------------------|
|---3-----------------|--3-------------------|


   ~~~~~~~~~~~~~~~~~~~~~~~~~~~~~~~~~~~~
   H.         +Q.       H.         +Q.
|--------------------|-18---------(18)---|
|-15---------(15)----|-------------------|
|--------------------|-------------------|
|--------------------|-------------------|
|--------------------|-------------------|
|--------------------|-------------------|
|
|  Q   Q  Q    Q   E    Q   Q  Q    Q.
|--------------------|-------------------|
|--------------------|-------------------|
|------------------7-|-------------------|
|--5---8--7----8-----|--5---8--7----8----|
|--------------------|-------------------|
|--------------------|-------------------|
|
|  Q   Q  Q    Q   E    Q   Q  Q    Q.
|--------------------|-------------------|
|--------------------|-------------------|
|--------------------|-------------------|
|------5--3----5---5-|------5--3----5----|
|--------------------|-------------------|
|--3-----------------|--3----------------|


  E5
  Gtr III
   E  E  E  E   E  E  Q.        E  E  E  E   E  E  Q.
|----------19--20-22-22b24r==|=22-20-19-----------------|
|-19-20-22-------------------|----------22--20-19-20----|
|----------------------------|--------------------------|
|----------------------------|--------------------------|
|----------------------------|--------------------------|
|----------------------------|--------------------------|
|
| Gtrs I, II
|  Q     E  Q.        Q.        Q     E  Q.        Q.
|----------------------------|--------------------------|
|----------------------------|--------------------------|
|----------------------------|--------------------------|
|----------------------------|--------------------------|
|--2-----2-------------------|--2-----2-----------------|
|--0-----0-------------------|--0-----0-----------------|


                                 ~~~
   E  E  E  E   E  E  Q.         H.          Q.
|----------19--20-22----------|-------------------|
|-19-20-22-----------19tr20---|-19----------17----|
|-----------------------------|-------------------|
|-----------------------------|-------------------|
|-----------------------------|-------------------|
|-----------------------------|-------------------|
|
|  Q     E  Q.        Q.         Q   E Q.    Q.
|-----------------------------|-------------------|
|-----------------------------|-------------------|
|-----------------------------|-------------------|
|-----------------------------|-------------------|
|--2-----2--------------------|--2---2------------|
|--0-----0--------------------|--0---0------------|


  G5
                                |--4:6---|
   H.          +Q.       Q.     S   S  S S  Q.
|---------------------|--------------------------|
|-15----------(15)\---|-15-----12--15-12-0-10----|
|---------------------|--------------------------|
|---------------------|--------------------------|
|---------------------|--------------------------|
|---------------------|--------------------------|
|
|  Q   E Q.     Q.       Q   E  Q.          Q.
|---------------------|--------------------------|
|---------------------|--------------------------|
|---------------------|--------------------------|
|--5---5--------------|--5---5-------------------|
|--5---5--------------|--5---5-------------------|
|--3---3--------------|--3---3-------------------|


   H.          +Q.      +H.          +Q.
|--------------------|----------------------|
|-12----------(12)---|-(12)---------(12)----|
|--------------------|----------------------|
|--------------------|----------------------|
|--------------------|----------------------|
|--------------------|----------------------|
|
|  Q   E Q.     Q.       Q   E Q.     Q.
|--------------------|----------------------|
|--------------------|----------------------|
|--------------------|----------------------|
|--5---5-------------|---5---5--------------|
|--5---5-------------|---5---5--------------|
|--3---3-------------|---3---3--------------|


   Verse
    N.C.(Em)
    Gtrs I, II
    PM-|     PM       PM-|     PM       PM-|     PM       PM-|     PM
    Q  E E E E Q.     Q  E E E E Q.     Q  E E E E Q.     Q  E E E E Q.
||------------------|-----------------|-----------------|------------------|
||o-----------------|-----------------|-----------------|------------------|
||------------------|-----------------|-----------------|------------------|
||-------5S4---4----|------5S4---4----|------5S4---4----|------5S4---2-----|
||o-----------------|-----------------|-----------------|------------------|
||--0--0-----0------|-0--0-----0------|-0--0-----0------|-0--0-----0-------|


  N.C.(G)
  PM-|     PM       PM-|     PM       PM-|     PM       PM-|     PM
  Q  E E E E Q.     Q  E E E E Q.     Q  E E E E Q.     Q  E E E E Q.
|-----------------|-----------------|-----------------|------------------||
|-----------------|-----------------|-----------------|-----------------o||
|-----------------|-----------------|-----------------|------------------||
|------8S7---7----|------8S7---7----|------8S7---7----|------8S7---5-----||
|-----------------|-----------------|-----------------|-----------------o||
|-3--3-----3------|-3--3-----3------|-3--3-----3------|-3--3-----3-------||


 Outro
  Q.=168
  Em                                                               N.C.
 12/8
  Gtr I
   W.               +W.               +W.               +q.   Q.   Q  Q  Q
|----------------|-----------------|-----------------|-----------------------|
|----------------|-----------------|-----------------|-----------------------|
|----------------|-----------------|-----------------|-----------------------|
|----------------|-----------------|-----------------|-----------------------|
|--7-------------|--(7)------------|--(7)------------|--(7)-----------7--5---|
|----------------|-----------------|-----------------|-------------0---------|
|
| Gtr II
|  W.               +W.               +W.               +q.   Q.   Q  Q  Q
|----------------|-----------------|-----------------|-----------------------|
|----------------|-----------------|-----------------|-----------------------|
|----------------|-----------------|-----------------|-----------------------|
|----------------|-----------------|-----------------|-----------------------|
|-10-------------|-(10)------------|-(10)------------|-(10)-----------7--5---|
|----------------|-----------------|-----------------|-------------0---------|


    N.C.
    Gtrs I, II
             PM         PM           PM
    Q  E E E E Q.   E E E   Q.   E E E Q  Q  Q
||------------------------|---------------------|
||o-----------------------|---------------------|
||------------------------|---------------------|
||------------------------|---------------------|
||o-7--7------------------|---------------2-----|
||-------7S6-6-6----6S5-5-|-5----5S3-3-3-----3--|


           PM
  Q  E E E E Q.   E E E   Q  Q  Q  Q  Q  Q
|-----------------------|--------------------||
|-----------------------|-------------------o||
|-----------------------|--------------------||
|-----------------------|--------------------||
|-----------------------|-5-----------7--5--o||
|-0--0-7S6-6-6----6-7-6-|----6--5--3---------||


  Gtr III
           PM         PM           PM
  Q  E E E E Q.   E E E   Q.   E E E Q  Q  Q
|-----------------------|---------------------|
|-----------------------|---------------------|
|-----------------------|---------------4-----|
|------9S8-8-8----8S7-7-|-7----7S5-5-5-----5--|
|-7--7------------------|---------------------|
|-----------------------|---------------------|
|
| Gtrs I, II
|          PM         PM           PM
| Q  E E E E Q.   E E E   Q.   E E E Q  Q  Q
|-----------------------|---------------------|
|-----------------------|---------------------|
|-----------------------|---------------------|
|-----------------------|---------------------|
|-7--7------------------|---------------2-----|
|------7S6-6-6----6S5-5-|-5----5S3-3-3-----3--|


            PM
  Q.    E E E Q.   E E E   Q  Q  Q  Q  Q  Q    Q.   +Q.    H.
|------------------------|-------------------|-------------------*|
|------------------------|-------------------|-------------------*|
|------------------------|-7-----------9--7--|-9----(9)\---------*|
|-------9S8-8-8----8-9-8-|----8--7--5--------|-------------------*|
|------------------------|-------------------|-------------------*|
|------------------------|-------------------|-------------------*|
|
|           PM
| Q   E E E E Q.   E E E   Q  Q  Q  Q  Q  Q    Q.   +Q.    H.
|------------------------|-------------------|-------------------*|
|------------------------|-------------------|-------------------*|
|------------------------|-------------------|-------------------*|
|------------------------|-------------------|-------------------*|
|------------------------|-5-----------7--5--|-7----(7)\---------*|
|-0---0-7S6-6-6----6-7-6-|----6--5--3--------|-------------------*|



Duration Legend
---------------
W - whole; H - half; Q - quarter; E - 8th; S - 16th; T - 32nd; X - 64th; a - acciaccatura
+ - note tied to previous; . - note dotted; .. - note double dotted
Uncapitalized letters represent notes that are staccato (1/2 duration)
Irregular groupings are notated above the duration line
Duration letters will always appear directly above the note/fret number it represents the
duration for.  Duration letters with no fret number below them represent rests.  Multi-
bar rests are notated in the form Wxn, where n is the number of bars to rest for.  Low
melody durations appear below the staff

Tablature Legend
----------------
 h   - hammer-on
 p   - pull-off
 b   - bend
 pb  - pre-bend
 r   - bend release (if no number after the r, then release immediately)
 /\  - slide into or out of (from/to "nowhere")
 s   - legato slide
 S   - shift slide
 - natural harmonic
[n]  - artificial harmonic
n(n) - tapped harmonic
 ~   - vibrato
 tr  - trill
 T   - tap
 TP  - trem. picking
 PM  - palm muting
\n/  - tremolo bar dip; n = amount to dip
 \n  - tremolo bar down
 n/  - tremolo bar up
/n\  - tremolo bar inverted dip
 =   - hold bend; also acts as connecting device for hammers/pulls
 <> - volume swell (louder/softer)
 x   - on rhythm slash represents muted slash
 o   - on rhythm slash represents single note slash

Misc Legend
-----------
 |  - bar
||  - double bar
||o - repeat start
o|| - repeat end
*|  - double bar (ending)
 :  - bar (freetime)
 $  - Segno
 &  - Coda
Tempo markers -  = BPM(8/16=s8/s16), where s8 = swing 8ths, s16 = swing 16ths

Suggest correction
Creating personal tab
Creating personal tab
You can edit any tab online and save it as your Personal.

You can edit, replace or remove any tab part or add personal notes – all changes will be seen only by you.

Personal tabs can be accessed anytime from any device, even offline.
Learn more »
Give kudos to tab author, rate the tab!
1 2 3 4 5
comments
print report bad tab
guest
You may want to rate the tab now too:
select rating
Wanna post a correction for this tab? Suggest correction