Oops, an error
Loading. Please wait.

9 Pm Til I Come tab

by ATB
14,358 views 63 this week
4 commentsread comments
1 2 3 4 5
x 9
add to favorites
×
Save as Personal and add changes to this tab that will be seen only by you. Learn more ›
×
You can save this tab as Personal to edit and correct it or add notes. All changes will be seen only by you. Learn more »
launch autoscroll
font size
0
reset
how to read this tab
guitar tuner
edit
Autoscroll
slow
fast
+/-
esc
set tempo
stop
#----------------------------------PLEASE NOTE---------------------------------#
#This file is the author's own work and represents their interpretation of the #
#song. You may only use this file for private study, scholarship, or research. #
#------------------------------------------------------------------------------##


TAB BY: MARCOS BORTOLUSSI


HI, This is my first tab, I'm sure it's correct, if you can't  get the sound of the bending and
realease, try to bend it a bit less.


Intro:
	 Goes with delay

|----------------------------------------|
|---------------13----------------10-13--|
|-14-14b16r14-------10-10b12r10----------|
|----------------------------------------|
|----------------------------------------|
|----------------------------------------|

Main Riff:	Without delay
|-----------------------------------------------------------------------------|
|---------------13-13-13-15b17r15----------------------10-10-10-13b15r13------|
|-14-14b16r14-----------------------10---10-10b12r10----------------------12--|
|-----------------------------------------------------------------------------|
|-----------------------------------------------------------------------------|
|-----------------------------------------------------------------------------|

This part sounds very similar but i'm not very sure if it's 100 % correct

|------------------------------|
|----11----11------9----9--11--|
|-12----12------10---10--------|
|------------------------------|
|------------------------------|
|------------------------------|

Any correction, sugestion or dude, e-mail me to marcos@tvicom.com.ar

--------------------------------------------------------------------------------
Legend
------

 h  = hammer-on		 |  = bar
 p  = pull-off		||  = double bar
 b  = bend		||* = repeat start
 r  = bend release	*|| = repeat end
 /  = slide up/down	*|  = double bar (end)
[5] = nat. harmonic	 !  = repeat beat (?,8th)
<5> = art. harmonic	!!  = repeat beat (16th)
 ~  = vibrato		 %  = repeat measure
 tr = trill		 :  = bar (freetime)
 T  = tap		du  = tremolo bar dip
 TP = trem. picking	 d  = tremolo bar down
 PM = palm muting	 u  = tremolo bar up
 S  = slap		ud  = tremolo bar inverted dip
 P  = pop		 =  = hold (bend or tremolo bar)

            
            
Suggest correction
Creating personal tab
Creating personal tab
You can edit any tab online and save it as your Personal.

You can edit, replace or remove any tab part or add personal notes – all changes will be seen only by you.

Personal tabs can be accessed anytime from any device, even offline.
Learn more »
comments
print report bad tab
4 comments total. Showing first comments.
+1 reply
Sha0 10 Aug 12, 2007 12:14 PM

Legendary.

+2 reply
B_T_K 10 Dec 19, 2007 05:36 AM

i think it sounds better with slide(or hammer-ons and pull-offs)than with bend

0 reply
Nero Galon 365 Aug 09, 2016 08:02 AM

|------------------------------|
|----11----11------9----9--11--|
|-12----12------10---10--------|
|------------------------------|
|------------------------------|
|------------------------------|

Should be

|------------------------------|
|----11----11------------------|
|-12----12----------10----10---|
|----------------12----12------|
|------------------------------|
|------------------------------|

Personally I like to palm mute the notes too with some delay.

guest
Wanna post a correction for this tab? Suggest correction