Oops, an error
Loading. Please wait.

Shake Those Windows bass

version 1
version 1

Whole song

Interactive

by Athlete
604 views 1 this week
no commentswrite comment
1 2 3 4 5
2 more votes to show rating
add to favorites
×
Save as Personal and add changes to this tab that will be seen only by you. Learn more ›
×
You can save this tab as Personal to edit and correct it or add notes. All changes will be seen only by you. Learn more »
launch autoscroll
font size
0
reset
guitar tuner
edit
Autoscroll
slow
fast
+/-
esc
set tempo
stop
Difficulty
I don't even play bass, I'm a guitarist, but this should be at least 95% accurate 
you can choose to play it wherever you want on the fretboard if its easier, but these are the 
he's playing. I don't own a bass, so i tuned my nylon string acoustic to standard 
bass tuning, but this tabs seem almost perfect.

Bass comes in at 2nd Verse


		In 2 seconds			the beat was recognised…
G|----------------7-10-7-----------------------------------------------------|
D|--8---8---8---8------------------------5-8-5-------------------------------|		x3
A|-------------------------6---6---6---6-------------------------------------|
E|---------------------------------------------------------------------------|


Shake   those       win  dows       songs&songs&        beats& rimes …
G|---------------------------------------------------------------------------|
D|---------------------------------------------------------------------------|		x2
A|--5---5-5-----5---5-5-----3---3-3----3---3-3-------------------------------|
E|---------------------------------------------------------------------------|

skies					         Just let      the         record play       
G|-------3--5--7---------3--5--7------------5--3-------------------------|and bring it back again
D|----------------------------------1---1-1----------------5--3----------|		x4
A|-1---1-----------1---1---------------------------3---3-3---------------|
E|-----------------------------------------------------------------------|

Break- with drums and synth and weird echo thing
G|---------------------------------------------------------------------------|
D|---------------------------------------------------------------------------|
A|-1-------------------------------------------------------------------------|
E|---------------------------------------------------------------------------|

chorus
	Just let      the         record play       and bring it back again
G|------------5--3--------------------------3-5-7--------3-5-7---------------|
D|----1---1-1----------------5--3--------------------------------------------|		x4
A|-------------------3---3-3----------1---1--------1---1---------------------|
E|---------------------------------------------------------------------------|

Just let yourself go		Just let yourself go
G|---------------------------------------------------------------------------|
D|--1-1-1-1-1-1-1--3-5-5-5-5-5-5-5--7-8-8-8-8-8-8-8-8-8-8-8-8-8-8-8-0--------|
A|---------------------------------------------------------------------------|
E|---------------------------------------------------------------------------|

Just let yourself go		Just let yourself goooooooooooooooooooooo
G|---------------------------------------------------------------------------|
D|--1-1-1-1-1-1-1--3-5-5-5-5-5-5-5--x---------------8-8-8-8-8-8-8-8-0--------|
A|---------------------------------------------------------------------------|
E|------------------------------------6-6-6-6-6-6-6--------------------------|


No singing break  x4
G|---------------------------------------------------------------------------|
D|--1-1-1-1-1-1-1--3-5-5-5-5-5-5-5--7-8-8-8-8-8-10-12-8-8-8-8-8-8--10-12-0---|
A|---------------------------------------------------------------------------|
E|---------------------------------------------------------------------------|

G|--------------------------------------------------------------------10-----|
D|--1-1-1-1-1-1-1--3-5-5-5-5-5-5-5--7-8-8-8-8-8-8-8-8-8-8-10-10-12-12--------|
A|---------------------------------------------------------------------------|
E|---------------------------------------------------------------------------|

G|---------------------------------------------------------------------------|
D|--1-1-1-1-1-1-1--3-5-5-5-5-5-5-5--7-8-8-8-8-8-10-12-8-8-8-8-8-8--10-12-0---|
A|---------------------------------------------------------------------------|
E|---------------------------------------------------------------------------|

G|---------------------------------------------------------------------------|
D|--1-1-1-1-1-1-1--3-5-5-5-5-5-5-5--x---------------8-8-8-8-8-8-8-8-0--------|
A|---------------------------------------------------------------------------|
E|------------------------------------6-6-6-6-6-6-6--------------------------|

Just let yourself go		Just let yourself go
G|--------------------------------------------------------------------10-----|
D|--1-1-1-1-1-1---1-5-5-5-5-5-5-5-5--8-8-8-8-8-8-8-8-8-8-10-10-12-12---------|
A|--------------1------------------------------------------------------------|
E|---------------------------------------------------------------------------|

Just let yourself go		Just let yourself go
G|---------------------------------------------------------------------------|
D|--1-1-1-1-1-1---1-5-5-5-5-5-5-5--x-----------------------------------------|
A|--------------1--------------------1---------------------------------------|
E|---------------------------------------------------------------------------|

            
            
Suggest correction
Creating personal tab
Creating personal tab
You can edit any tab online and save it as your Personal.

You can edit, replace or remove any tab part or add personal notes – all changes will be seen only by you.

Personal tabs can be accessed anytime from any device, even offline.
Learn more »
Give kudos to tab author, rate the tab!
1 2 3 4 5
comments
print report bad tab
guest
Wanna post a correction for this tab? Suggest correction