Oops, an error
Loading. Please wait.

Tourist Tab

version 1
version 1

Whole song

Interactive

6,405 views 3 this week
4 commentsread comments
1 2 3 4 5
x 4
add to favorites
launch autoscroll
font size
0
reset
how to read this tab
guitar tuner
Autoscroll
slow
fast
+/-
esc
set tempo
stop
Help us to improve Ultimate-Guitar.com Take our survey!
×
Artist: Athlete
Song: Tourist (from the 'Tourist' abulm)
Tabbed By: Alex Branchini

Its the simple chord sequence that is in the intro and most of the song. I haven't put
the rhythem in so u'r going to have to work that one out u'rself, but its all the same
anyway.

Intro: Dm7, Am7, A#maj7, C

  Dm7   Am7  A#maj7  C
E]-5-----0-----1-----3-|
B]-6-----1-----3-----5-|
G]-5-----0-----2-----5-|
D]-7-----2-----3-----5-|
A]-5-----0-----1-----3-|
E]-x-----x-----x-----x-|

Second Guitar: (not to sure on but it sounds ok)

E]-13--10----------------------|
B]---------12--10--------------|
G]-----------------12--10--12/-|
D]-----------------------------|
A]-----------------------------|
E]-----------------------------|

Dm7        Am7  A#maj7         C        Dm7
  This european air, it always warms my face
  I don't go braking down, I feel like nothing. etc.........

It my first tab so thanks for reading and plez rate.
Suggest correction
comments
print report bad tab
4 comments total. Showing first comments.
0 reply
hotchik 10 Aug 30, 2006 10:54 AM

sounds good to me i am surprised you havent had any more comments.
xx

0 reply
The_alchemist 75 Feb 17, 2007 10:07 AM

E]-13--10----------------------|
B]---------12--10--------------|
G]-----------------12--10--12/-|
D]-----------------------------|
A]-----------------------------|
E]-----------------------------|

should be played a string lower

0 reply
Graham22 32 Mar 05, 2007 02:58 PM

I play it like this because it's nearer to the chords, it's the same notes though.

E]-8--5------------------------|
B]-------8----6----------------|
G]----------------7------------|
D]-----------------------------|
A]-----------------------------|
E]-----------------------------|

guest
You may want to rate the tab now too:
select rating
Wanna post a correction for this tab? Suggest correction