Oops, an error
Loading. Please wait.

Wires Tab

version 1
version 1

Whole song

Interactive

10,766 views 6 this week
2 commentsread comments
1 2 3 4 5
accurate
x 5
add to favorites
launch autoscroll
font size
0
reset
how to read this tab
guitar tuner
Tab Pro tools
  • play this tab
  • loop segment
  • change instrument
  • show fretboard
  • metronome
×
Best way to learn
"Wires"
Autoscroll
slow
fast
+/-
esc
set tempo
stop
#----------------------------------PLEASE NOTE---------------------------------#
#This file is the author's own work and represents their interpretation of the #
#song. You may only use this file for private study, scholarship, or research. #
#------------------------------------------------------------------------------##


Gtr I (E A D G B E) - 'Standard'

Heres the basic idea of the song, should give you the gist of it

 Intro
  Q=60
 4/4
  Gtr I
  W          +W           W          W
|-6--------|-(6)--------|-4--------|-4----|
|-7--------|-(7)--------|-6--------|-6----|
|-6--------|-(6)--------|-6--------|-6----|
|-8--------|-(8)--------|-6--------|-6----|
|-6--------|-(6)--------|-4--------|-4----|
|----------|------------|----------|------|


   Verse
    Q  E S e S Q.      Q  E S e S Q.     Q  E S e S Q.
||--6--6---6---6-----|-6--6---6---6----|-4--4---4---4-----|
||o-7--7-x-7-x-7-----|-7--7-x-7-x-7----|-6--6-x-6-x-6-----|
||--6--6-x-6-x-6-----|-6--6-x-6-x-6----|-6--6-x-6-x-6-----|
||--8--8-x-8-x-8-----|-8--8-x-8-x-8----|-6--6-x-6-x-6-----|
||o-6--6---6---6-----|-6--6---6---6----|-4--4---4---4-----|
||-------------------|-----------------|------------------|


                         Chorus
  Q  E S e S Q.           Q  E S e S Q.     Q  E S e S Q.
|-4--4---4---4-----||-||--4--4---4---4----|-4--4---4---4-----|
|-6--6-x-6-x-6----o||-||o-4--4-x-4-x-4----|-4--4-x-4-x-4-----|
|-6--6-x-6-x-6-----||-||--4--4-x-4-x-4----|-4--4-x-4-x-4-----|
|-6--6-x-6-x-6-----||-||--4--4-x-4-x-4----|-4--4-x-4-x-4-----|
|-4--4---4---4----o||-||o-6--6---6---6----|-6--6---6---6-----|
|------------------||-||--4--4---4---4----|-4--4---4---4-----|


  Q  E S e S Q.     Q  E S e S Q.
|-6--6---6---6----|-4--4---4---4-----|
|-7--7-x-7-x-7----|-6--6-x-6-x-6-----|
|-6--6-x-6-x-6----|-6--6-x-6-x-6-----|
|-8--8-x-8-x-8----|-6--6-x-6-x-6-----|
|-6--6---6---6----|-4--4---4---4-----|
|-----------------|------------------|


Duration Legend
---------------
W - whole; H - half; Q - quarter; E - 8th; S - 16th; T - 32nd; X - 64th; a - acciaccatura
+ - note tied to previous; . - note dotted; .. - note double dotted
Uncapitalized letters represent notes that are staccato (1/2 duration)
Irregular groupings are notated above the duration line
Duration letters will always appear directly above the note/fret number it represents the
duration for.  Duration letters with no fret number below them represent rests.  Multi-
bar rests are notated in the form Wxn, where n is the number of bars to rest for.  Low
melody durations appear below the staff

Tablature Legend
----------------
 h   - hammer-on
 p   - pull-off
 b   - bend
 pb  - pre-bend
 r   - bend release (if no number after the r, then release immediately)
 /\  - slide into or out of (from/to "nowhere")
 s   - legato slide
 S   - shift slide
  - natural harmonic
[n]  - artificial harmonic
n(n) - tapped harmonic
 ~   - vibrato
 tr  - trill
 T   - tap
 TP  - trem. picking
 PM  - palm muting
\n/  - tremolo bar dip; n = amount to dip
 \n  - tremolo bar down
 n/  - tremolo bar up
/n\  - tremolo bar inverted dip
 =   - hold bend; also acts as connecting device for hammers/pulls
 <>  - volume swell (louder/softer)
 x   - on rhythm slash represents muted slash
 o   - on rhythm slash represents single note slash

Misc Legend
-----------
 |  - bar
||  - double bar
||o - repeat start
o|| - repeat end
*|  - double bar (ending)
 :  - bar (freetime)
 $  - Segno
 &  - Coda
Tempo markers -  = BPM(8/16=s8/s16), where s8 = swing 8ths, s16 = swing 16ths


***************************************************************************************
* Generated using Power Tab Editor by Brad Larsen - http://powertab.guitarnetwork.org *
***************************************************************************************
comments
print report bad tab
2 comments total.
-2 reply
sheepy1988 wrote on October 17 2006, 07:47 am

what the hell is this, you know people are meant to be able to read it dont you?

+2 reply
Yhimie wrote on July 14 2007, 03:09 pm

i like it, its perfect man!
@ sheepy1988: leran to use your ears too man -.-

I want to post or [tab]
guest
You may want to rate the tab now too:
select rating
Please do not post tabs as comments. Select "correction" instead!