Oops, an error
Loading. Please wait.

You Got The Style Tab

version 1
version 1

Whole song

684 views 1 this week
no commentswrite comment
1 2 3 4 5
please rate
add to favorites
launch autoscroll
font size
0
reset
how to read this tab
guitar tuner
Autoscroll
slow
fast
+/-
esc
set tempo
stop
Help us to improve Ultimate-Guitar.com Take our survey!
×
Contributor
mccabe24 720
----------------------------------------------------------------------------
                     You got the Style - Athlete
----------------------------------------------------------------------------
This is 100% correct. Good Luck!!!


Verse
e|-9---9---9--9--9--9--9---9---9--9--9-7-7--7--7-7-7-7-7--7-----7-|
B|10--10--10-10-10-10-10--10--10-10-10-9-9--9--9-9-9-9-9--9-10--9-|
G|11--11--11-11-11-11-11--11--11-11-11-9-9--9--9-9-9-9-9--9--9--9-|
D|----------------------------------------------------------------|
A|----------------------------------------------------------------|
E|----------------------------------------------------------------|

e|-7-----------------------------------7----------7---7-----7-----|
B|-9-----------------------------------7-----7--7--------9--7-----|
G|-9-----------------------------------9--9-----------------------|
D|----------------------------------------------------------------|
A|----------------------------------------------------------------|
E-----------------------------------------------------------------|

Quiet Chorus
e|-9-------------------9---------------7--------------------------|
B|10-------------------9---------------7--------------------------|
G|-9-------------------9---------------7--------------------------|
D|11-------------------9---------------7--------------------------|
A|12------------------11---------------9--------------------------|
E|----------------------------------------------------------------|

Chorus
e|-9---9--9--x----9------9---9---9-----x--7---7-7-10-10-10-10--12-|
B|10--10-10--x----9------9---9---9-----x--7---7-7--7--7--7--7---9-|
G|-9---9--9--x----9------9---9---9-----x--7---7-7--7--7--7--7---9-|
D|11--11-11-------9------9---9---9--------7---7-7---------------9-|
A|12--12-12------11-----11--11--11--------9---9-9-----------------|
E|----------------------------------------------------------------|

Bridge
e|12-12-12-12-12-12-12-12------------------------------------------|
B|10-10-10-10-10-10-10-10-12-12-12-12--12-x-10-10-10-10-12-12-12-12|
G|-9--9--9--9--9--9--9--9--9--9--9--9---9-x--7--7--7--7--9--9--9--9|
D|11-11-11-11-11-11-11-11--9--9--9--9---9-x--7--7--7--7--9--9--9--9|
A|-9--9--9--9--9--9--9--9-11-11-11-11--11-x--9--9--9--9-11-11-11-11|
E|-------------------------9--9--9--9---9-x--7--7--7--7--9--9--9--9|

Solo
e|5-------4----------------------------------------------12-------|
B|7-------5-----15-15-15-15-15-15-15-15-14-12-10/14--10------12---|
G|6-------4-----------------------------------------------9-------|
D|7-------6-----12-12-12-12-12-12-12-12-11--9--7/11---7-------9---|
A|----------------------------------------------------------------|
E|----------------------------------------------------------------|

Well, that\'s it! All the guitar parts are there, all you need to do is put them together! Please rate!
comments
We did not receive enough feedback on this tab! Please rate:
print report bad tab
1 2 3 4 5
I want to post or [tab]
guest
You may want to rate the tab now too:
select rating
Please do not post tabs as comments. Select "correction" instead!