Oops, an error
Loading. Please wait.

Aadat Tab

version 1
version 1

Whole song

Interactive

52,149 views 39 this week
no commentswrite comment
1 2 3 4 5
x 9
add to favorites
launch autoscroll
font size
0
reset
how to read this tab
guitar tuner
Autoscroll
slow
fast
+/-
esc
set tempo
stop
Help us to improve Ultimate-Guitar.com Take our survey!
×
Difficulty
intermediate
atif aslam (jal) Aadat
Tabbed By Bilal Mian 
                                 aaa aaaaa...
e|------------------------------------|
B|-----------4-----4-----4-----4------|
G|-------6-----6-----6-----6-----6----|
D|-----6---6-----6-----6-----6-----6--|
A|--\4--------------------------------|
E|------------------------------------|

aaaaaaaaaa
e|------------------------------------|
B|-----------4-----4-----4-----4------|
G|-------6-----6-----6-----6-----6----|
D|-----6---6-----6-----6-----6-----6--|
A|---4--------------------------------|
E|------------------------------------|


e|------------------------------------|
B|-----------5-----5-----5-----5------|
G|-------6-----6-----6-----6-----6----|
D|-----6---6-----6-----6-----6-----6--|
A|---4--------------------------------|
E|------------------------------------|

                                 na jaanay.....
e|------------------------------------|
B|-----------4-----4-----4-----4------|
G|------6------6-----6-----6-----6----|
D|---------------6-----6-----6-----6--|
A|---4--------------------------------|
E|------------------------------------|

                                 umeedain...
e|------------------------------------|
B|-----------4-----4-----4-----4------|
G|-------6-----6-----6-----6-----6----|
D|-----6---6-----6-----6-----6-----6--|
A|---4--------------------------------|
E|------------------------------------|


e|------------------------------------|
B|-----------5-----5-----5-----5------|
G|-------6-----6-----6-----6-----6----|
D|---------------6-----6-----6-----6--|
A|---4--------------------------------|
E|------------------------------------|

                                 mujhe...
e|------------------------------------|
B|-----------4-----4-----4-----4------|
G|-------6-----6-----6-----6-----6----|
D|---------6-----6-----6-----6-----6--|
A|---4--------------------------------|
E|------------------------------------|

                                 kyun...
e|------------------------------------|
B|-----------4-----4-----4-----4------|
G|-------6-----6-----6-----6-----6----|
D|---------6-----6-----6-----6-----6--|
A|---4--------------------------------|
E|------------------------------------|

                                 na jaanay say
e|----------------------------------------------|
B|-----------5-----5-----5-----5-----------5----|
G|-------6-----6-----6-----6-----6---------6----|
D|---------5-----6-----6-----6-----6-------6----|
A|---4-------------------------------------4----|
E|----------------------------------------------|


then the strummin comes:
guitar 1
e|------------------------|
B|--444-555-5--444-555-5--|
G|--666-666-6--666-666-6--|
D|--666-666-6--666-666-6--|
A|--444-444-4--444-444-4--|
E|------------------------|

e|------------------------|
B|--444-555-5--444-555-5--|
G|--666-666-6--666-666-6--|
D|--777-777-7--777-777-7--|
A|--444-444-4--444-444-4--|
E|------------------------|


while this plays a second time...a second guitar plays this:

guitar 2
e|--------0---------------0---------------0---------0--|
B|--2-0-2----2-0----2-0-2----2-0------0---------0---0--|
G|----------------------------------2---2-----2-----2--|
D|-----------------------------------------------------|
A|-----------------------------------------------------|
E|-----------------------------------------------------|


guitar 1
duur jithna...mujhse...... teray meinnnnnn
e|-----444-444-4--222-222-2--000-000-0--222-222-2--|
B|-----555-555-5--444-444-4--222-222-2--444-444-4--|
G|-----666-666-6--444-444-4--222-222-2--444-444-4--|
D|-----666-666-6--444-444-4--222-222-2--444-444-4--|
A|-----444-444-4--222-222-2--000-000-0--222-222-2--|
E|-------------------------------------------------|

ab tho aadat......ko..... jeenay meinnnnnnn
e|-----444-444-4--222-222-2--000-000-0--222-222-2--|
B|-----555-555-5--444-444-4--222-222-2--444-444-4--|
G|-----666-666-6--444-444-4--222-222-2--444-444-4--|
D|-----666-666-6--444-444-4--222-222-2--444-444-4--|
A|-----444-444-4--222-222-2--000-000-0--222-222-2--|
E|-------------------------------------------------|

  zindagi.... shikva....  nahin  haiii.....
e|-----444-444-4--222-222-2--000-000-0--222-222-2--|
B|-----555-555-5--444-444-4--222-222-2--444-444-4--|
G|-----666-666-6--444-444-4--222-222-2--444-444-4--|
D|-----666-666-6--444-444-4--222-222-2--444-444-4--|
A|-----444-444-4--222-222-2--000-000-0--222-222-2--|
E|-------------------------------------------------|

ab tho zinda....  neelay..aasmaan meinnnnn
e|-----444-444-4--222-222-2--000-000-0--222-222-2--|
B|-----555-555-5--444-444-4--222-222-2--444-444-4--|
G|-----666-666-6--444-444-4--222-222-2--444-444-4--|
D|-----666-666-6--444-444-4--222-222-2--444-444-4--|
A|-----444-444-4--222-222-2--000-000-0--222-222-2--|
E|-------------------------------------------------|


with guitar 1 continuing the same pattern...
guitar 2 plays this
e|----------4----7p4--------4----7p4---------2------4-----5------|
B|------5---------------5----------------2--------2-----2-----2--|
G|----6---6---6-------6---6---6--------2---2----2-----2-----2----|
D|---------------------------------------------------------------|
A|---------------------------------------------------------------|
E|---------------------------------------------------------------|

e|----------4----7p4--------4----7p4------------2--|
B|------5---------------5----------------2------2--|
G|----6---6---6-------6---6---6--------2--------2--|
D|-------------------------------------------------|
A|-------------------------------------------------|
E|-------------------------------------------------|


guitar 1
chahat aisi...  teri.....  ja-ay..........
e|-----444-444-4--222-222-2--000-000-0--222-222-2--|
B|-----555-555-5--444-444-4--222-222-2--444-444-4--|
G|-----666-666-6--444-444-4--222-222-2--444-444-4--|
D|-----666-666-6--444-444-4--222-222-2--444-444-4--|
A|-----444-444-4--222-222-2--000-000-0--222-222-2--|
E|-------------------------------------------------|

aahat aisi...   teri.... sathaa-ay ..........
e|-----444-444-4--222-222-2--000-000-0--222-222-2--|
B|-----555-555-5--444-444-4--222-222-2--444-444-4--|
G|-----666-666-6--444-444-4--222-222-2--444-444-4--|
D|-----666-666-6--444-444-4--222-222-2--444-444-4--|
A|-----444-444-4--222-222-2--000-000-0--222-222-2--|
E|-------------------------------------------------|

... gehri .....ithnee..duub ja-ay.........
e|-----444-444-4--222-222-2--000-000-0--222-222-2--|
B|-----555-555-5--444-444-4--222-222-2--444-444-4--|
G|-----666-666-6--444-444-4--222-222-2--444-444-4--|
D|-----666-666-6--444-444-4--222-222-2--444-444-4--|
A|-----444-444-4--222-222-2--000-000-0--222-222-2--|
E|-------------------------------------------------|

aur  aankhon....ghum....... ja-ainnn....
e|-----444-444-4--222-222-2--000-000-0--222-222-2--|
B|-----555-555-5--444-444-4--222-222-2--444-444-4--|
G|-----666-666-6--444-444-4--222-222-2--444-444-4--|
D|-----666-666-6--444-444-4--222-222-2--444-444-4--|
A|-----444-444-4--222-222-2--000-000-0--222-222-2--|
E|-------------------------------------------------|

hey hey heyyyyyy hooooooo      oooooooooooo
e|-----444-444-4--222-222-2--000-000-0--222-222-2--|
B|-----555-555-5--444-444-4--222-222-2--444-444-4--|
G|-----666-666-6--444-444-4--222-222-2--444-444-4--|
D|-----666-666-6--444-444-4--222-222-2--444-444-4--|
A|-----444-444-4--222-222-2--000-000-0--222-222-2--|
E|-------------------------------------------------|

Solo
 
e [-4-5-4-4-4-4-------------------------]
B [------------7-5-4-4-4-4-4-5-4-2-5-7-5-4]
G [-------------------------------------]
D [-------------------------------------]
A [-------------------------------------]
E [-------------------------------------]

e [--4-5-4-44-4-7-9-7-9s11-9-77-7-5s7---5---4s2-]
B [---------------------------------------------]
G [---------------------------------------------]
D [---------------------------------------------]
A [---------------------------------------------]
E [---------------------------------------------]


The rest of the song is basically the same.
Enjoy!

Tab by Bilal Mian
Suggest correction
comments
print report bad tab
guest
You may want to rate the tab now too:
select rating
Wanna post a correction for this tab? Suggest correction