Oops, an error
Loading. Please wait.

Ab Tou Aadat Si Hai Tab

7,863 views 18 this week
no commentswrite comment
1 2 3 4 5
please rate
add to favorites
launch autoscroll
font size
0
reset
how to read this tab
guitar tuner
Autoscroll
slow
fast
+/-
esc
set tempo
stop
Help us to improve Ultimate-Guitar.com Take our survey!
×
Difficulty
intermediate
Tabs: Maula Bukhsh Soomro
Age: 15
Occupation: Student and guitarist
College: Aitchison College, Lahore.

These are the tabs of my most Favourite song, it’s Aadat. Aadat was declared the best
pop song and best composed song. It is an all-time hit song in Pakistan. Actually, it
is song by Atif aslam and Jal the band. But no one knows who wrote these. Case is still
pending in the court of law.




guitar 1 (acoustic)
guitar 2 (clean electric)
guitar 3 (backing acoustic)
guitar 4 (distorted electric)



guitar 1
                                 aaa aaaaa...
e|------------------------------------|
B|-----------4-----4-----4-----4------|
G|-------6-----6-----6-----6-----6----|
D|-----6---6-----6-----6-----6-----6--|
A|--\4--------------------------------|
E|------------------------------------|

aaaaaaaaaa
e|------------------------------------|
B|-----------4-----4-----4-----4------|
G|-------6-----6-----6-----6-----6----|
D|-----6---6-----6-----6-----6-----6--|
A|---4--------------------------------|
E|------------------------------------|


e|------------------------------------|
B|-----------5-----5-----5-----5------|
G|-------6-----6-----6-----6-----6----|
D|-----6---6-----6-----6-----6-----6--|
A|---4--------------------------------|
E|------------------------------------|

                                 na jaanay.....
e|------------------------------------|
B|-----------4-----4-----4-----4------|
G|------6------6-----6-----6-----6----|
D|---------------6-----6-----6-----6--|
A|---4--------------------------------|
E|------------------------------------|

                                 umeedain...
e|------------------------------------|
B|-----------4-----4-----4-----4------|
G|-------6-----6-----6-----6-----6----|
D|-----6---6-----6-----6-----6-----6--|
A|---4--------------------------------|
E|------------------------------------|


e|------------------------------------|
B|-----------5-----5-----5-----5------|
G|-------6-----6-----6-----6-----6----|
D|---------------6-----6-----6-----6--|
A|---4--------------------------------|
E|------------------------------------|

                                 mujhe...
e|------------------------------------|
B|-----------4-----4-----4-----4------|
G|-------6-----6-----6-----6-----6----|
D|---------6-----6-----6-----6-----6--|
A|---4--------------------------------|
E|------------------------------------|

                                 kyun...
e|------------------------------------|
B|-----------4-----4-----4-----4------|
G|-------6-----6-----6-----6-----6----|
D|---------6-----6-----6-----6-----6--|
A|---4--------------------------------|
E|------------------------------------|

                                 na jaanay say
e|----------------------------------------------|
B|-----------5-----5-----5-----5-----------5----|
G|-------6-----6-----6-----6-----6---------6----|
D|---------5-----6-----6-----6-----6-------6----|
A|---4-------------------------------------4----|
E|----------------------------------------------|


then the strummin comes:
guitar 1
e|------------------------|
B|--444-555-5--444-555-5--|
G|--666-666-6--666-666-6--|
D|--666-666-6--666-666-6--|
A|--444-444-4--444-444-4--|
E|------------------------|

e|------------------------|
B|--444-555-5--444-555-5--|
G|--666-666-6--666-666-6--|
D|--777-777-7--777-777-7--|
A|--444-444-4--444-444-4--|
E|------------------------|


while this plays a second time...a second guitar plays this:

guitar 2
e|--------0---------------0---------------0---------0--|
B|--2-0-2----2-0----2-0-2----2-0------0---------0---0--|
G|----------------------------------2---2-----2-----2--|
D|-----------------------------------------------------|
A|-----------------------------------------------------|
E|-----------------------------------------------------|


guitar 1
duur jithna...mujhse...... teray meinnnnnn
e|-----444-444-4--222-222-2--000-000-0--222-222-2--|
B|-----555-555-5--444-444-4--222-222-2--444-444-4--|
G|-----666-666-6--444-444-4--222-222-2--444-444-4--|
D|-----666-666-6--444-444-4--222-222-2--444-444-4--|
A|-----444-444-4--222-222-2--000-000-0--222-222-2--|
E|-------------------------------------------------|

ab tho aadat......ko..... jeenay meinnnnnnn
e|-----444-444-4--222-222-2--000-000-0--222-222-2--|
B|-----555-555-5--444-444-4--222-222-2--444-444-4--|
G|-----666-666-6--444-444-4--222-222-2--444-444-4--|
D|-----666-666-6--444-444-4--222-222-2--444-444-4--|
A|-----444-444-4--222-222-2--000-000-0--222-222-2--|
E|-------------------------------------------------|

  zindagi.... shikva....  nahin  haiii.....
e|-----444-444-4--222-222-2--000-000-0--222-222-2--|
B|-----555-555-5--444-444-4--222-222-2--444-444-4--|
G|-----666-666-6--444-444-4--222-222-2--444-444-4--|
D|-----666-666-6--444-444-4--222-222-2--444-444-4--|
A|-----444-444-4--222-222-2--000-000-0--222-222-2--|
E|-------------------------------------------------|

ab tho zinda....  neelay..aasmaan meinnnnn
e|-----444-444-4--222-222-2--000-000-0--222-222-2--|
B|-----555-555-5--444-444-4--222-222-2--444-444-4--|
G|-----666-666-6--444-444-4--222-222-2--444-444-4--|
D|-----666-666-6--444-444-4--222-222-2--444-444-4--|
A|-----444-444-4--222-222-2--000-000-0--222-222-2--|
E|-------------------------------------------------|


with guitar 1 continuing the same pattern...
guitar 2 plays this
e|----------4----7p4--------4----7p4---------2------4-----5------|
B|------5---------------5----------------2--------2-----2-----2--|
G|----6---6---6-------6---6---6--------2---2----2-----2-----2----|
D|---------------------------------------------------------------|
A|---------------------------------------------------------------|
E|---------------------------------------------------------------|

e|----------4----7p4--------4----7p4------------2--|
B|------5---------------5----------------2------2--|
G|----6---6---6-------6---6---6--------2--------2--|
D|-------------------------------------------------|
A|-------------------------------------------------|
E|-------------------------------------------------|


guitar 1
chahat aisi...  teri.....  ja-ay..........
e|-----444-444-4--222-222-2--000-000-0--222-222-2--|
B|-----555-555-5--444-444-4--222-222-2--444-444-4--|
G|-----666-666-6--444-444-4--222-222-2--444-444-4--|
D|-----666-666-6--444-444-4--222-222-2--444-444-4--|
A|-----444-444-4--222-222-2--000-000-0--222-222-2--|
E|-------------------------------------------------|

aahat aisi...   teri.... sathaa-ay ..........
e|-----444-444-4--222-222-2--000-000-0--222-222-2--|
B|-----555-555-5--444-444-4--222-222-2--444-444-4--|
G|-----666-666-6--444-444-4--222-222-2--444-444-4--|
D|-----666-666-6--444-444-4--222-222-2--444-444-4--|
A|-----444-444-4--222-222-2--000-000-0--222-222-2--|
E|-------------------------------------------------|

... gehri .....ithnee..duub ja-ay.........
e|-----444-444-4--222-222-2--000-000-0--222-222-2--|
B|-----555-555-5--444-444-4--222-222-2--444-444-4--|
G|-----666-666-6--444-444-4--222-222-2--444-444-4--|
D|-----666-666-6--444-444-4--222-222-2--444-444-4--|
A|-----444-444-4--222-222-2--000-000-0--222-222-2--|
E|-------------------------------------------------|

aur  aankhon....ghum....... ja-ainnn....
e|-----444-444-4--222-222-2--000-000-0--222-222-2--|
B|-----555-555-5--444-444-4--222-222-2--444-444-4--|
G|-----666-666-6--444-444-4--222-222-2--444-444-4--|
D|-----666-666-6--444-444-4--222-222-2--444-444-4--|
A|-----444-444-4--222-222-2--000-000-0--222-222-2--|
E|-------------------------------------------------|

hey hey heyyyyyy hooooooo      oooooooooooo
e|-----444-444-4--222-222-2--000-000-0--222-222-2--|
B|-----555-555-5--444-444-4--222-222-2--444-444-4--|
G|-----666-666-6--444-444-4--222-222-2--444-444-4--|
D|-----666-666-6--444-444-4--222-222-2--444-444-4--|
A|-----444-444-4--222-222-2--000-000-0--222-222-2--|
E|-------------------------------------------------|


then the solo comes in:
guitar 1
e|--4-5-4-44-44----------------------------------------|
B|--------------7-5-4-44-44--4-5-4-2-4s5----5s7-5---4--|
G|-----------------------------------------------------|
D|-----------------------------------------------------|
A|-----------------------------------------------------|
E|-----------------------------------------------------|

e|--4-5-4-44-4-7-9-7-9s11-9-77-7-5s7---5---4s2---------|
B|-----------------------------------------------------|
G|-----------------------------------------------------|
D|-----------------------------------------------------|
A|-----------------------------------------------------|
E|-----------------------------------------------------|

during the solo....
guitar 3 plays this
e|-----------4--------2--------0--------2--|
B|-----------5--------4--------2--------4--|
G|---------6--------4--------2--------4----|
D|-------6--------4--------2--------4------|
A|-----4--------2--------0--------2--------|
E|-----------------------------------------|

n continues to play it after the solo is over:
guitar 3
ab tho aadat si... aisay...  meinnnn
e|-----------4--------2--------0---2--|
B|-----------5--------4--------2---4--|
G|---------6--------4--------2-----4--|
D|-------6--------4--------2-------4--|
A|-----4--------2--------0---------2--|
E|------------------------------------|


then...guitar 1 plays this along with the alaaps:
e|-----xxx-xxx-x--xxx-xxx-x--xxx-xxx-x--xxx-xxx-x--|
B|-----xxx-xxx-x--xxx-xxx-x--xxx-xxx-x--xxx-xxx-x--|
G|-----666-666-6--444-444-4--222-222-2--444-444-4--|
D|-----666-666-6--444-444-4--222-222-2--444-444-4--|
A|-----444-444-4--222-222-2--000-000-0--222-222-2--|
E|-----xxx-xxx-x--xxx-xxx-x--xxx-xxx-x--xxx-xxx-x--|
along with guitar 2 playin this:
e|-----77-7s9-99--77-7s9-99--77-7s5-55--55-5s77-7--|
B|-----55-5s7-77--55-5s7-77--55-5s3-33--33-3s55-5--|
G|-----66-6s8-88--66-6s8-88--66-6s4-44--44-4s66-6--|
D|-------------------------------------------------|
A|-------------------------------------------------|
E|-------------------------------------------------|


guitar 4
sabhee raatein hain.......... batein hainnnn
e|---------xxx-xxx-x--xxx-xxx-x--xxx-xxx-x--xxx-xxx-x--|
B|---------xxx-xxx-x--xxx-xxx-x--xxx-xxx-x--xxx-xxx-x--|
G|---------666-666-6--666-666-6--222-222-2--444-444-4--|
D|---------666-666-6--666-666-6--222-222-2--444-444-4--|
A|---------444-444-4--444-444-4--000-000-0--222-222-2--|
E|---------xxx-xxx-x--xxx-xxx-x--xxx-xxx-x--xxx-xxx-x--|

bhuladon unhein............. unheinnnn
e|---------xxx-xxx-x--xxx-xxx-x--xxx-xxx-x--xxx-xxx-x--|
B|---------xxx-xxx-x--xxx-xxx-x--xxx-xxx-x--xxx-xxx-x--|
G|---------666-666-6--666-666-6--222-222-2--444-444-4--|
D|---------666-666-6--666-666-6--222-222-2--444-444-4--|
A|---------444-444-4--444-444-4--000-000-0--222-222-2--|
E|---------xxx-xxx-x--xxx-xxx-x--xxx-xxx-x--xxx-xxx-x--|

alaapps
guitar 4
e|-----xxx-xxx-x--xxx-xxx-x--xxx-xxx-x--xxx-xxx-x--|
B|-----xxx-xxx-x--xxx-xxx-x--xxx-xxx-x--xxx-xxx-x--|
G|-----666-666-6--444-444-4--222-222-2--444-444-4--|
D|-----666-666-6--444-444-4--222-222-2--444-444-4--|
A|-----444-444-4--222-222-2--000-000-0--222-222-2--|
E|-----xxx-xxx-x--xxx-xxx-x--xxx-xxx-x--xxx-xxx-x--|
guitar 1
e|-----444-444-4--222-222-2--000-000-0--222-222-2--|
B|-----555-555-5--444-444-4--222-222-2--444-444-4--|
G|-----666-666-6--444-444-4--222-222-2--444-444-4--|
D|-----666-666-6--444-444-4--222-222-2--444-444-4--|
A|-----444-444-4--222-222-2--000-000-0--222-222-2--|
E|-------------------------------------------------|

alaapps
guitar 4
e|-----xxx-xxx-x--xxx-xxx-x--xxx-xxx-x--xxx-xxx-x--|
B|-----xxx-xxx-x--xxx-xxx-x--xxx-xxx-x--xxx-xxx-x--|
G|-----666-666-6--444-444-4--222-222-2--444-444-4--|
D|-----666-666-6--444-444-4--222-222-2--444-444-4--|
A|-----444-444-4--222-222-2--000-000-0--222-222-2--|
E|-----xxx-xxx-x--xxx-xxx-x--xxx-xxx-x--xxx-xxx-x--|
guitar 1
e|-----444-444-4--222-222-2--000-000-0--222-222-2--|
B|-----555-555-5--444-444-4--222-222-2--444-444-4--|
G|-----666-666-6--444-444-4--222-222-2--444-444-4--|
D|-----666-666-6--444-444-4--222-222-2--444-444-4--|
A|-----444-444-4--222-222-2--000-000-0--222-222-2--|
E|-------------------------------------------------|


guitar 1                                     ab tho aadat si hai mujh ko...
e|-----------4--------2--------0--------2--|
B|-----------5--------4--------2--------4--|
G|---------6--------4--------2--------4----|
D|-------6--------4--------2--------4------|
A|-----4--------2--------0--------2--------|
E|-----------------------------------------|

Tabs By Maula Bukhsh Soomro
Suggest correction
Give kudos to tab author, rate the tab!
1 2 3 4 5
comments
print report bad tab
guest
You may want to rate the tab now too:
select rating
Wanna post a correction for this tab? Suggest correction