Oops, an error
Loading. Please wait.

Humrahi Chords

version 2
version 2

Whole song

3,606 views 12 this week
no commentswrite comment
1 2 3 4 5
2 more votes to show rating
add to favorites
launch autoscroll
font size
0
reset
transpose
0
reset
display chords
guitar tuner
Autoscroll
slow
fast
+/-
esc
set tempo
stop
Help us to improve Ultimate-Guitar.com Take our survey!
×
Difficulty
novice
Heres what I think the chords in the song are played.

The whole song has the the following pattern except the end:

e|--------7-7-7---------5-5-5---------5-5-5---------5-5-5-|
b|-3-3-3---------3-3-3--3-3-3--3-3-3--3-3-3--3-3-3--3-3-3-|
g|-0-0-0--7-7-7--0-0-0--2-2-2--0-0-0--2-2-2--0-0-0--2-2-2-|
d|-0-0-0--7-7-7--0-0-0---------0-0-0---------0-0-0--------|
a|-2-2-2---------2-2-2---------2-2-2---------2-2-2--------|
E|-3-3-3---------3-3-3---------3-3-3---------3-3-3--------|

There are also some mute picking which anyone can easily guess by listening the song. 
above chord pattern is repeated in the whole song.

The ending is something like this:

e|--------7-7-7---------9-9-9-9---------10-10-10-10---------12-12-12-12-|
b|-3-3-3---------3-3-3-----------3-3-3---------------3-3-3--------------|
g|-0-0-0--7-7-7--0-0-0--7-7-7-7--0-0-0---7--7--7--7--0-0-0---7--7--7--7-|
d|-0-0-0--7-7-7--0-0-0--7-7-7-7--0-0-0---7--7--7--7--0-0-0---7--7--7--7-|
a|-2-2-2---------2-2-2-----------2-2-2---------------2-2-2--------------|
E|-3-3-3---------3-3-3-----------3-3-3---------------3-3-3--------------|

The above pattern is repeated a few times which can check from the song and also extra 
don't mean that the interval between the strum and the next strum is more. It is just to 
the note look better as part of that single strum.

If anyone feels that there aren't good or wrong, just mail me with correction if 
on rip.only@yahoo.com or just send me a PM on UG Forums.
Have Fun,
Uzair Latif. AKA Rip
Suggest correction
Give kudos to tab author, rate the tab!
1 2 3 4 5
comments
print report bad tab
guest
You may want to rate the tab now too:
select rating
Wanna post a correction for this tab? Suggest correction