Oops, an error
Loading. Please wait.

Joug Tab

version 1
version 1

Whole song

900 views 3 this week
2 commentsread comments
1 2 3 4 5
please rate
add to favorites
launch autoscroll
font size
0
reset
how to read this tab
guitar tuner
Autoscroll
slow
fast
+/-
esc
set tempo
stop
Help us to improve Ultimate-Guitar.com Take our survey!
×
Difficulty
novice
Joug/Suroor by Atif Aslam

Tabbed by: Haider A. Aslam

e------------------------------------------------5------|
b------7-----7-------7-----7-------7-----7---------7----|
g--------6-----6-------6-----6-------6-----6---------6--|   x 2(play twice)
d---0-------0-----0-------0-----0-------0------0--------|
a-------------------------------------------------------|
E-------------------------------------------------------|


e------------------------------------------------3------|
b------5-----5-------5-----5-------5-----5---------5----|
g--------4-----4-------4-----4-------4-----4---------4--|
d---0-------0-----0-------0-----0-------0------0--------|
a-------------------------------------------------------|
E-------------------------------------------------------|

e----------------------------------5----5----5------------|
b------7-----7-------7-----7--------7-----7----7----------|
g--------6-----6-------6-----6----------------------------|
d---0-------0-----0-------0-----0----0--------------------|
a---------------------------------------------------------|
E---------------------------------------------------------|


The same pattern goes throughout the song.
Suggest correction
Give kudos to tab author, rate the tab!
1 2 3 4 5
comments
print report bad tab
2 comments total.
0 reply
bilalstunning 16 wrote on June 1 2008, 08:32 am

wrong tab check bilal's version

0 reply
sssnuka 118 wrote on January 6 2009, 07:38 am

wrong tabs dude.

guest
You may want to rate the tab now too:
select rating
Please do not post tabs as comments. Select "correction" instead!