Oops, an error
Loading. Please wait.

Joug Tab

version 2
version 2

Whole song

524 views 1 this week
no commentswrite comment
1 2 3 4 5
please rate
add to favorites
launch autoscroll
font size
0
reset
how to read this tab
guitar tuner
Autoscroll
slow
fast
+/-
esc
set tempo
stop
Help us to improve Ultimate-Guitar.com Take our survey!
×
Basically the whole song goes like this:

e-------------------------------------0-----|
b----4----4----4----4----4----4----4----4---|
g-----4----4----4----4----4----4----4-----4-|
d-------------------------------------------|
a--4----4----4----4----4----4----4----------|
e-------------------------------------------|

e-------------------------------------0-----|
b----4----4----4----4----4----4----4----4---|
g-----4----4----4----4----4----4----4-----4-|
d-------------------------------------------|
a--2----2----2----2----2----2----2----------|
e-------------------------------------------|

e-------------------------------------0-----|
b----2----2----2----2----2----2----2----2---|
g-----2----2----2----2----2----2----2-----2-|
d-------------------------------------------|
a--0----0----0----0----0----0----0----------|
e-------------------------------------------|

e------------------------0-----0---0--------|
b----4----4----4----4------4-----4---4------|
g-----4----4----4----4-------4--------------|
d-------------------------------------------|
a--2----2----2----2----2--------------------|
e-------------------------------------------|
Suggest correction
Give kudos to tab author, rate the tab!
1 2 3 4 5
comments
print report bad tab
guest
You may want to rate the tab now too:
select rating
Please do not post tabs as comments. Select "correction" instead!