Oops, an error
Loading. Please wait.

Rabba Sachya Tab

version 1
version 1

Intro

Whole song

1,126 views 1 this week
no commentswrite comment
1 2 3 4 5
please rate
add to favorites
launch autoscroll
font size
0
reset
how to read this tab
guitar tuner
Autoscroll
slow
fast
+/-
esc
set tempo
stop
Help us to improve Ultimate-Guitar.com Take our survey!
×
Difficulty
novice
Artist:Atif Aslam
Song:Rabba Sachya
Submitted by:Haider Ali Aslam

It goes like this throughout the song:
e--------------------------------------|
b--------------------------------------|
g--------------------------------------|
d-----0---------0--------0-------------|
a---5---5-----5---5----5---5-----5-5---|
E-7-------7-7--------7-------7-7-----7-|

e--------------------------------------|
b--------------------------------------|
g--------------------------------------|
d-----0---------0-------0--------0-----|
a---4---4-----4---4---2---2-----2--2---|
E-5-------5-5-------3-------3-3--------|

For corrections/suggestions: haidderali@yahoo.com
Suggest correction
Give kudos to tab author, rate the tab!
1 2 3 4 5
comments
print report bad tab
guest
You may want to rate the tab now too:
select rating
Wanna post a correction for this tab? Suggest correction