Oops, an error
Loading. Please wait.

Rabba Sachya Tab

version 1
version 1

Whole song

3,910 views 1 this week
1 commentread comment
1 2 3 4 5
excellent!
x 3
add to favorites
launch autoscroll
font size
0
reset
how to read this tab
guitar tuner
Tab Pro tools
  • play this tab
  • loop segment
  • change instrument
  • show fretboard
  • metronome
×
Best way to learn
"Rabba Sachya"
Autoscroll
slow
fast
+/-
esc
set tempo
stop
Contributor
Difficulty
novice
Tabbed by: Hassan
song: rabba sacheya (LIVE ACOUSTIC VERSION)
band: atif aslam

Tuning: standered

INTRO
e|------------------------------------------------------------------|
B|------------------------------------------------------------------|
G|------------------------------------------------------------------|
D|------0-0-----0-0-----0-0-----0-0-----0-0-----0-0------0-0-----0-0|
A|----5-------5-------5-------5\------4-------4\------2-------2-----|
E|--7-------7-------7-------7-------5-------5\------3-------3-------|



e|----------------------------------|
B|----------------------------------|
G|----------------------------------|
D|------0-0-----0-0-----0-0-----0-0-|
A|----5-------5-------5-------5-----|
E|--7-------7-------7-------7-------|

Rabba Sacheya.....Tu Te Akheya Si

e|----------------------------------|
B|----------------------------------|
G|----------------------------------|
D|------0-0-----0-0-----0-0-----0-0-|
A|----4-------4-------2-------2-----|
E|--5-------5--------3-------3------|

Jaao Bandeya....Jag Da Shah Tu


e|----------------------------------|
B|----------------------------------|
G|----------------------------------|
D|------0-0-----0-0-----0-0-----0-0-|
A|----5-------5-------5-------5-----|
E|--7-------7-------7-------7-------|
Kadi Saarwi Layi Rab Sohneya....Tere Shah Nal Ki Ki Kitiyan


e|----------------------------------|
B|----------------------------------|
G|----------------------------------|
D|------0-0-----0-0-----0-0-----0-0-|
A|----4-------4-------2-------2-----|
E|--5-------5--------3-------3------|

Kithey Taaney Maare Patwari....Kithay Dhonse Police Sarkar

e|------------------|
B|------------------|
G|------------------|
D|------0-0-----0-0-|
A|----5-------5-----|
E|--7-------7-------|


Menu Shahi Nahi Chahi Di

e|-------------------|
B|-------------------|
G|-------------------|
D|------0-0-----0-0--|
A|----4-------4------|
E|--5-------5--------|

Oh Rab Sohneya

e|--------------------|
B|--------------------|
G|--------------------|
D|--------0-0-----0-0-|
A|------2-------2-----|
E|----3-------3-------|

Main Taa Izzat Da Tukkar Mangdaa Haan


e|------------------|
B|------------------|
G|------------------|
D|------0-0-----0-0-|
A|----5-------5-----|
E|--7-------7-------|


Menu Shahi Nahi Chahi Di

e|-------------------|
B|-------------------|
G|-------------------|
D|------0-0-----0-0--|
A|----4-------4------|
E|--5-------5--------|

Oh Rab Sohneya

e|--------------------|
B|--------------------|
G|--------------------|
D|--------0-0-----0-0-|
A|------2-------2-----|
E|----3-------3-------|

Main Taa Izzat Da Tukkar Mangdaa Haan

then he goes for this pattren with out singing.. kinda intrelude.

e|-----------------------------------------------------------------------|
B|-----------------------------------------------------------------------|
G|-----------------------------------------------------------------------|
D|------0-0-----0-0-----0-0-------0----------0-0-----0-0------0-0-----0-0|
A|----5-------5-------5-------5\----7\-----4-------4\------2-------2-----|
E|--7-------7-------7-------7\--------9\-5-------5\-------3-------3------|


then strum 
D                             G
Kayi Sassiyan Thallan Vich Rulliyan
D                    G                  x2
Kayi Raanjhey Jogi Hoye


e|----------------------------------|
B|----------------------------------|
G|----------------------------------|
D|------0-0-----0-0-----0-0-----0-0-|
A|----5-------5-------5-------5-----|
E|--7-------7-------7-------7-------|

Rabba Sacheya.....Tu Te Akheya Si

e|----------------------------------|
B|----------------------------------|
G|----------------------------------|
D|------0-0-----0-0-----0-0-----0-0-|
A|----4-------4-------2-------2-----|
E|--5-------5--------3-------3------|

Jaao Bandeya....Jag Da Shah Tu


e|----------------------------------|
B|----------------------------------|
G|----------------------------------|
D|------0-0-----0-0-----0-0-----0-0-|
A|----5-------5-------5-------5-----|
E|--7-------7-------7-------7-------|
Kadi Saarwi Layi Rab Sohneya....Tere Shah Nal Ki Ki Kitiyan


e|----------------------------------|
B|----------------------------------|
G|----------------------------------|
D|------0-0-----0-0-----0-0-----0-0-|
A|----4-------4-------2-------2-----|
E|--5-------5--------3-------3------|

Kithey Taaney Maare Patwari....Kithay Dhonse Police Sarkar



e|------------------|
B|------------------|
G|------------------|
D|------0-0-----0-0-|
A|----5-------5-----|
E|--7-------7-------|


Menu Shahi Nahi Chahi Di

e|-------------------|
B|-------------------|
G|-------------------|
D|------0-0-----0-0--|
A|----4-------4------|
E|--5-------5--------|

Oh Rab Sohneya

e|--------------------|
B|--------------------|
G|--------------------|
D|--------0-0-----0-0-|
A|------2-------2-----|
E|----3-------3-------|

Main Taa Izzat Da Tukkar Mangdaa Haan


e|------------------|
B|------------------|
G|------------------|
D|------0-0-----0-0-|
A|----5-------5-----|
E|--7-------7-------|


Menu Shahi Nahi Chahi Di

e|-------------------|
B|-------------------|
G|-------------------|
D|------0-0-----0-0--|
A|----4-------4------|
E|--5-------5--------|

Oh Rab Sohneya

e|--------------------|
B|--------------------|
G|--------------------|
D|--------0-0-----0-0-|
A|------2-------2-----|
E|----3-------3-------|

Main Taa Izzat Da Tukkar Mangdaa Haan

again come the strumming.

D                 Em
Ohhhhh Sabar De Jooooo
G
Tere Nere Karde
G        D
Tere Nere Karde

D                 Em 
Ohhhh Sabar De Joooo
G
Tere Nere Karde
G        D
Tere Nere Karde

A      Em       
Mere Gunnah De
  G       D                      x2
Hare Vere Karde

again comes d picking pattren


e|----------------------------------------------------------------------|
B|----------------------------------------------------------------------|
G|----------------------------------------------------------------------|
D|------0-0-----0-0-----0-0-------0----------0-0-----0-0-----0-0-----0-0|
A|----5-------5-------5-------5\----7\----4-------4\------2-------2-----|
E|--7-------7-------7-------7\-------9\-5-------5\-------3-------3------|


Fade out ...
comments
We did not receive enough feedback on this tab! Please rate:
print report bad tab
1 2 3 4 5
1 comment total.
+1 reply
harris L wrote on October 7 2008, 12:50 am

cool man...

I want to post or [tab]
guest
You may want to rate the tab now too:
select rating
Please do not post tabs as comments. Select "correction" instead!