Oops, an error
Loading. Please wait.

Spooky tab

version 1
version 1

Whole song

79,711 views 75 this week
9 commentsread comments
1 2 3 4 5
x 14
add to favorites
×
Save as Personal and add changes to this tab that will be seen only by you. Learn more ›
×
You can save this tab as Personal to edit and correct it or add notes. All changes will be seen only by you. Learn more »
launch autoscroll
font size
0
reset
how to read this tab
guitar tuner
backing track
0:00
0:00
edit
Autoscroll
slow
fast
+/-
esc
set tempo
stop
Author
Difficulty
"/" TEMPORARY 8th note
    (hopefully help guide through the chords)

CHORDS
 
                                                                           
      Em7          A         Adim                                   A6*    
     EADGBe      EADGBe     EADGBe                                EADGBe   
     x79787      577655     xx5656                                57x675   
                                           
                                          *Threw these in
                                           if you want to                  
      Fm7          Bb                       add a bit more          Bb6*   
                                       dynamic, flavor or stylee           
     EADGBe      EADGBe                      to the tune           EADGBe  
     x8a898      688766                                            68x786  
                              a=10 b=11                                             


[Chorus]

A6* (sometimes i'll mess around with the 9th string, high 'e' string on the 8th fret.)
                        
|Em7 / / / / |A / / / / |Em7 / / / / |A or A6* / / / /  

                                           
In the cool of the evening
When everything is gettin' kind of groovy
I call you up and ask you if you
Would you like to go with me and see a movie 


|Em7 / / / / ~ / / / /                                        
First you say no, you've got some plans for the night

             |A / / / / |Adim / / (strum about 'twice' to the "all right") 

And then you stop, and say, all right
Love is kinda crazy with a spooky little girl like you

You always keep me guessin'
I never seem to know what you are thinkin'
And if a fella looks at you
It's for sure your little eye will be a-winkin'
I get confused, cause I don't know where I stand
And then you smile, and hold my hand
Love is kinda crazy with a spooky little girl like you
Spooky

Key change (half step up...)

|Fm7 / / / / |Bb / / / / |Fm7 / / / / |Bb / / / /                       Bb |or Bb6*


[Solo 1]

e|-------------------------------------------------------------------------|
B|-------------------------------------------------------------------------|
G|-------------------------------------------------------------------------|
D|----12---13---13-13--------------------------------------------12h13p12--|
A|/15----15--15------15-13\-11----11-13r-13r-13r-11----------11~-----------|
E|-----------------------------13-------------------13-11-13~--------------|

e|-------------------------------------------------------------------------|
B|---15----16----16--16----------------------------------------------------|
G|17----17----17--------17-13h15p13----15r-15r-15r-13~----------13~--------|
D|----------------------------------15-----------------15-13-15------------|
A|-------------------------------------------------------------------------|
E|-------------------------------------------------------------------------|

e|-------------------------------------------------------------------------|
B|------------------------------------------------------18-16--------------|
G|17p15----15-15/17\----13-1515b-(17)-b15p13------13---------15/17\15-13-|
D|------18---------18-15----------------------15-15---15------------------|
A|-------------------------------------------------------------------------|
E|-------------------------------------------------------------------------|

e|-----------------------------------------------------------------------|
B|-----------------------------------------------------------------------|
G|-----------------------------------------------------------------------|
D|15-13------15-15--18p15-17p15--17/18-17/18-15----15--------------------|
A|-------/17------------------------------------17----17\----------------|
E|-----------------------------------------------------------------------|

e|13------------------------------------------------------------------13\|
B|13-16-13------------------------------------------------12~13----------|
G|---15-13-13-13------------------------13h15--13h15---15----------------|
D|---------15-13-13-13-13-15p13-13h15----13-----13-----13----------------|
A|---------------15-14-13-13----13---------------------------------------|
E|-----------------------------------------------------------------------|
  Fm7               Bb

If you decide someday to stop this little game that you are playin
I'm gonna tell you all what my heart's been a-dyin to be sayin
Just like a ghost, you've been a-hauntin my dreams
So I'll propose on Halloween
Love is kinda crazy with a spooky little girl like you
...



AppleScruffs

Still could use some help on the rest of the solo's...
This is the first TAB i ever wrote when i first started playing,
so leave some comments or your email if your interested in helping.

Thanks do jdd55 for the chord recommendation i think it sounds nice.  That being 
said give some other chords a try during the hangover in the song


************************************

| ~  TRILL
|( ) GHOST NOTE
| x  PALM NOTE
| /  SLIDE UP
| \  SLIDE DOWN
| %  EIGHTH REST
| h  HAMMER on
| P  PULL off
| T  USE THUMB
| B  BEND FULL STEP
| r  BEND FULL STEP then return
| b  BEND 1/2 STEP

************************************

            
            
Suggest correction
Creating personal tab
Creating personal tab
You can edit any tab online and save it as your Personal.

You can edit, replace or remove any tab part or add personal notes – all changes will be seen only by you.

Personal tabs can be accessed anytime from any device, even offline.
Learn more »
comments
print report bad tab
9 comments total. Showing first comments.
0 reply
guitar-pro-user 31 Jul 02, 2008 09:36 AM

nice tab, my dad loves this song so i wanted to see if i could learn it. if you have guitar pro you should use it so that people can get t he rhythm.

0 reply
jdd55 10 Oct 14, 2009 05:53 PM

The main chords are Em7(at B fret) to Dmaj7(at A fret). Strike up from the bottom and not down. Then an A chord to a quick

{--6-------------
{--5-------------
{--6-------------
{--5-------------
{---------------
{---------------

The Em7 to Dmaj7 to Em7 and end on Bm7(B fret)3 strokes.

0 reply
jdd55 10 Oct 14, 2009 06:03 PM

The main chords are Em7(at B fret) to Dmaj7(at A fret). Strike up from the bottom and not down. Then an A chord to a quick

{--6-------------
{--5-------------
{--6-------------
{--5-------------
{---------------
{---------------

The Em7 to Dmaj7 to Em7 and end on Bm7(B fret)3 strokes.

guest
You may want to rate the tab now too:
select rating
Wanna post a correction for this tab? Suggest correction