Oops, an error
Loading. Please wait.

Always Tab

version 1
version 1

Whole song

Interactive

4,333 views 12 this week
no commentswrite comment
1 2 3 4 5
3 more votes to show rating
add to favorites
launch autoscroll
font size
0
reset
how to read this tab
guitar tuner
Autoscroll
slow
fast
+/-
esc
set tempo
stop
Help us to improve Ultimate-Guitar.com Take our survey!
×
Author
Difficulty
advanced
ALWAYS
Atlantic Starr

INTRO:
   ----3/5~7---5\3-3/5-3/5-5~7-5-3----|-3-3-3/5------5--3-3-|
   -3/5-----------------------------5-|---------5--3--------|
   -----------------------------------|---------------------|
   -----------------------------------|---------------------|
   -----------------------------------|---------------------|
   -----------------------------------|---------------------|
VERSE I:
------------------|----------------|--------------------------|
------------------|----------------|--------------------------|
------8-8--8-8~10-|-5~7-5-4-5-4----|----7-7-7-7~9-------------|
-8~10----10-------|------------5-5-|-4/5---------7-7-5--------|
------------------|----------------|------------------5~7-5-5-|
------------------|----------------|--------------------------|
  Girl u r 2 me,        ol dt a woman shud b,& i ddcate my lyf 2 u always
-0-3-------------------3-3/5-3-3-3/5--|-5~7-5-3---------5-3-3--|
----5-3-3-3-3/5-----3-5-------------5-|-------5-5\3-3/5\3------|
---------4-------3-4------------------|------------------------|
--------------------------------------|------------------------|
--------------------------------------|------------------------|
--------------------------------------|------------------------|
a luv lyk urs is rare,it must hv bn sent frm up above,& i knw ul stay dz way 4 always
REFRAIN:
--2/3--3/5-2--0-2-2/3--3~5-3\2-|-3-5-6-3-3--3-5-6--3-5-5-|
-------------------------------|-------------------------|
-------------------------------|-------------------------|
-------------------------------|-------------------------|
-------------------------------|-------------------------|
-------------------------------|-------------------------|
 & we both knw, that our love will grow,& 4ever it will be you & me

|-5~7-5-5-3-3--------|
|------------3/5-3-3-|
|--------------------|
|--------------------|
|--------------------|
|--------------------|
CHORUS:
-3------------5~7-5-3-5-3-5-3---|----3--3--3/5------------|
--5-3-3-3/5-------------------3-|-3/5---------5-3-3/5-3-3-|
-----4--------------------------|-------------------------|
--------------------------------|-------------------------|
--------------------------------|-------------------------|
--------------------------------|-------------------------|
oh u'r lyk a sun,chasing ol of d rain away, when u cum around, u bring a
brighter day

|-3-----------5~7-5-3-5-3----|-5~7-5-3------5-3-3--|
|--5-3-3-3/5-------------5-5-|--------5-3/5--------|
|-----4----------------------|---------------------|
|----------------------------|---------------------|
|----------------------------|---------------------|
|----------------------------|---------------------|
ur d perfect one, for me and 4ever will be & i wil luv u so 4 always
VERSE II:
------------------|----------------|--------------------------|
------------------|----------------|--------------------------|
------8-8--8-8~10-|-5~7-5-4-5-4----|----7-7-7-7~9-------------|
-8~10----10-------|------------5-5-|-4/5---------7-7-5--------|
------------------|----------------|------------------5~7-5-5-|
------------------|----------------|--------------------------|
come wit me my sweet.lets go mke a family,dey wil bring us joy 4 always
-0-3-------------------3-3/5-3-3-3/5--|-5~7-5-3-----5-3-3--|
----5-3-3-3-3/5-----3-5-------------5-|--------5-5\3-------|
---------4-------3-4------------------|--------------------|
--------------------------------------|--------------------|
--------------------------------------|--------------------|
--------------------------------------|--------------------|
ohh boy i love you so i cant find a ways to let you knw bt i can be sure im yours
for always
*REPEAT REFRAIN & CHORUS:
INSTRUMENTAL:
|-5~7-3-3~5-3/5-5~7-5-3-|-3-3-5-------3-3---|
|-----------------------|------5-3-3/5------|
|-----------------------|-------------------|
|-----------------------|-------------------|
|-----------------------|-------------------|
|-----------------------|-------------------|
|-5~7-3-3~5--9-7-5-3--3-3-3/5----5-3-3------|
|-------------9-7-5-3--------5-3------------|
|-------------------------------------------|
|-------------------------------------------|
|-------------------------------------------|
|-------------------------------------------|
*REPEAT CHORUS: Oohhh...
*REPEAT INSTRUMENTAL:
I will love you so, for always
Suggest correction
Give kudos to tab author, rate the tab!
1 2 3 4 5
comments
print report bad tab
guest
You may want to rate the tab now too:
select rating
Wanna post a correction for this tab? Suggest correction