Oops, an error
Loading. Please wait.

Falling After You bass

58 views 1 this week
no commentswrite comment
1 2 3 4 5
3 more votes to show rating
add to favorites
×
Save as Personal and add changes to this tab that will be seen only by you. Learn more ›
×
You can save this tab as Personal to edit and correct it or add notes. All changes will be seen only by you. Learn more »
launch autoscroll
font size
0
reset
guitar tuner
edit
Autoscroll
slow
fast
+/-
esc
set tempo
stop
-------------------------------------------------------------------------------
                             Falling After You - Atlantis
-------------------------------------------------------------------------------
Tabbed by: Derek Gardner
E-mail: dgardner2319@yahoo.com

Tuning:DADG

Guitar Intro

Full Band Intro
G|---------------------------------------------------------------------------|
D|---------------------------------------------------------------------------|
A|---------------------------------------------------5-5-5-5-5-5-5-5---------|
D|-0-0-0-0-0-0-0-0h2-2-2-2-2-2-2-2/5-5-5-5-5-5-5-5---------------------------| (x2)

Verse (You are the one...)
G|---------------------------------------------------------------------------|
D|---------------------------------------------------------------------------|
A|---------------------------5555--------------------------------------------|
D|-0000-xxxx-2222-xxxx-5555--------------------------------------------------| (x4)

Pre Chorus (and you are the reason...)
G|---------------------------------------------------------------------------|
D|---------------------------------------------------------------------------|
A|---------------------------------------------------------------------------|
D|-0---------2---------4---------5-------------------------------------------|

G|---------------------------------------------------------------------------|
D|---------------------------------------------------------------------------|
A|---------------------------------------------------------------------------|
D|-0--------2----------4---------55555---------------------------------------|

Chorus (Your lips, Your face...)
G|---------------------------------------------------------------------------|
D|---------------------------------------------------------------------------|
A|---------------------------------------------------------------------------|
D|-00000000-22222222-44444444-55555555---------------------------------------| (x4)

Post Chorus (because you are the reason...)
G|---------------------------------------------------------------------------|
D|---------------------------------------------------------------------------|
A|-2-2-2/4-444-5-5-5-555-----------------------------------------------------|
D|---------------------------------------------------------------------------| (x2)

Verse (In life we define...)
G|---------------------------------------------------------------------------|
D|---------------------------------------------------------------------------|
A|---------------------------------------------------------------------------|
D|-00000000-22222222-55555555-44444444---------------------------------------| 

G|---------------------------------------------------------------------------|
D|---------------------------------------------------------------------------|
A|---------------------------------------4h5---------------------------------|
D|-00000000-22222222-55555555-4444-4h5---------------------------------------|

Pre Chorus (because you are the reason...)
G|---------------------------------------------------------------------------|
D|---------------------------------------------------------------------------|
A|---------------------------------------------------------------------------|
D|-00-00-000h2-2-2-2-55-55-555\4-4-4-4---------------------------------------| (x2)

Chorus (Your lips, Your face...)
G|---------------------------------------------------------------------------|
D|---------------------------------------------------------------------------|
A|---------------------------------------------------------------------------|
D|-00000000-22222222-44444444-55555555---------------------------------------| (x4)

Bridge (And I see, you falling...)
G|---------------------------------------------------------------------------|
D|----------------------------------------------------4----------5-----------|
A|-------------------------------------0-------------------------------------|
D|-10-1010-9-5---------------------------------------------------------------| (x4)

Chorus (Your lips, Your face...)
G|---------------------------------------------------------------------------|
D|---------------------------------------------------------------------------|
A|---------------------------------------------------------------------------|
D|-0---------2--------4--------5---------------------------------------------| (x2)

Build Chorus (I'll be yours...)
G|---------------------------------------------------------------------------|
D|---------------------------------------------------------------------------|
A|---------------------------------------------------------------------------|
D|-00000000-22222222-44444444-55555555---------------------------------------| (x2)

Chorus (Your lips, Your face...)
G|---------------------------------------------------------------------------|
D|---------------------------------------------------------------------------|
A|---------------------------------------------------------------------------|
D|-00000000-22222222-44444444-55555555---------------------------------------| (x2)

Outro
G|---------------------------------------------------------------------------|
D|---------------------------------------------------------------------------|
A|---------------------------------------------------------------------------|
D|-1010-99-55----------------------------------------------------------------| (x4)


| /  slide up
| \  slide down
| h  hammer-on
| p  pull-off
| ~  vibrato
| +  harmonic
| x  Mute note
===============================================================================

            
            
Suggest correction
Creating personal tab
Creating personal tab
You can edit any tab online and save it as your Personal.

You can edit, replace or remove any tab part or add personal notes – all changes will be seen only by you.

Personal tabs can be accessed anytime from any device, even offline.
Learn more »
Give kudos to tab author, rate the tab!
1 2 3 4 5
comments
print report bad tab
guest
You may want to rate the tab now too:
select rating
Wanna post a correction for this tab? Suggest correction