Oops, an error
Loading. Please wait.

Well-Rested chords

by Atlas
622 views 12 this week
no commentswrite comment
1 2 3 4 5
x 5
add to favorites
×
Save as Personal and add changes to this tab that will be seen only by you. Learn more ›
×
You can save this tab as Personal to edit and correct it or add notes. All changes will be seen only by you. Learn more »
launch autoscroll
font size
0
reset
transpose
0
reset
display chords
guitar tuner
edit
Autoscroll
slow
fast
+/-
esc
set tempo
stop
Author
Difficulty
About this tab version
Thanks to Louis Soopraya on the Youtube video of this for writing out a tab so all I had to do was proofread and transfer. Play with a capo if you need to although atlas plays it without one. Was this info helpful? Yes No
Strumming
There is no strumming pattern for this song yet. and get +5 IQ
[Intro] 
e|-0-2-0-----------0---------------------------------------------------------|
B|------4-2-4-2-0--0---------------------------------------------------------|
G|-----------------1---------------------------------------------------------|
D|-----------------2---------------------------------------------------------|
A|-----------------2---------------------------------------------------------|
E|-----------------X---------------------------------------------------------|

[Verse] 
            E
I'm sick of breathing in the smoke
of my mental illness' cigarettes
A
The smell is on my clothes
I'm freezing, it's not winter yet

E
but my fingers and my toes
are shivering beneath these sheets
A
and I feel so alone
I don't want to die, I want to sleep

[Chorus] 
F#m                        A
but no matter how hard I try
        Am              E + intro
I never feel well rested

[Verse] 
E
I'm weeping in these clothes
The same ones I wore yesterday
A
but even worse I know
that I wont have the energy

E
To change or bathe or slow
my heartbeat down to something normal
A
Struggling to breathe
I wish that I could just be fine

[Chorus] 
F#m                        A
but no matter how hard I try
        Am              E + intro
I never feel well rested

[Outro] 
F#m                        A
but no matter how hard I try
        Am              E + intro
I never feel well rested


e|--2p0-4p0-2p0--2p0---4-2-0-------------------------------------------------|
B|-1-----------1-----1-------------------------------------------------------|
G|-2-----------2-----2---------1---------------------------------------------|
D|-2-----------2-----2---------2---------------------------------------------|
A|-----------------------------2---------------------------------------------|
E|---------------------------------------------------------------------------|
 

************************************

| p  Pull-off
 

************************************

            
            
Suggest correction
Creating personal tab
Creating personal tab
You can edit any tab online and save it as your Personal.

You can edit, replace or remove any tab part or add personal notes – all changes will be seen only by you.

Personal tabs can be accessed anytime from any device, even offline.
Learn more »
comments
print report bad tab
guest
You may want to rate the tab now too:
select rating
Wanna post a correction for this tab? Suggest correction