Oops, an error
Loading. Please wait.

Trojans Bass Tab

version 1
version 1

Whole song

Interactive

8,355 views 27 this week
no commentswrite comment
1 2 3 4 5
excellent!
x 7
add to favorites
launch autoscroll
font size
0
reset
guitar tuner
Autoscroll
slow
fast
+/-
esc
set tempo
stop
Help us to improve Ultimate-Guitar.com Take our survey!
×
Author
Difficulty
novice
-----------------------------------------------------------------------------
                             Trojans - Atlas Genius
-----------------------------------------------------------------------------
Tabbed by: coheedfan28
E-mail: circaftw28@gmail.com

Tuning: STANDARD

0:20-0:33
G|-----------------------------------------------------------------------|
D|-----------------------------------------------------------------------| x2
A|-7-7--10-10--------------10-10--12-12----------------------------------|
E|-----------8-8(x4)-10h12-------------10-10(x5)-------------------------|

0:34-0:53 (Have some effect attached)
G|-----------------------------------------------------------------------|
D|--------------7--7-7----9----9-9---------------------------------------| x3
A|---7---7-7-----------10---10--------9----9-9---------------------------|
E|-0---0------8--8-----------------10---10-------------------------------|

0:54-1:21
G|-----------------------------------------------------------------------|
D|-----------------------------------------------------------------------| x4
A|-7-7--10-10--------------10-10--12-12----------------------------------|
E|-----------8-8(x4)-10h12-------------10-10(x5)-------------------------|

1:22-1:34
G|-----------------------------------------------------------------------|
D|--------------7--7-7----9----9-9---------------------------------------| x2
A|---7---7-7-----------10---10--------9----9-9---------------------------|
E|-0---0------8--8-----------------10---10-------------------------------|

1:35-2:02
G|----------------------------------------------------------------------|
D|----------------------------------------------------------------------|
A|----------------------10~10~-10h12------------------------------------|
E|-12~12~12~-8~8~-10h12--------------10~10~10---------------------------|

G|-----------------------------------------------------------------------|
D|-----------------------------------------------------------------------|
A|-----------------------------------------------------------------------|
E|-12~12~12~-8~8~8~-3~3~-3-2-3-5-----------------------------------------|

G|-------------------------------------------------------------------|
D|-------------------------------------------------------------------|
A|-----------------------5~5~-2(x3)-3(x3)----------------------------|
E|-12~12~12~-8~8~8~-3~3~-----------------3(x3)-5(x3)-10~-------------|

2:03-2:09
G|-----------------------------------------------------------------------|
D|-----------------------------------------------------------------------|
A|-----------------------------------------------------------------------|
E|-10(x20)---------------------------------------------------------------|

2:10-2:19 REST

2:20-2:34
G|-----------------------------------------------------------------------|
D|-----------------------------------------------------------------------|
A|------10-----------10--------------------------------------------------|
E|-12-8----10---12-8---10------------------------------------------------|

2:35-2:53
G|-----------------------------------------------------------------------|
D|-----------------------------------------------------------------------| x3
A|-7-7--10-10--------------10-10--12-12----------------------------------| 
E|-----------8-8(x4)-10h12-------------10-10(x5)-------------------------|

2:54-3:14
G|-----------------------------------------------------------------------|
D|--------------7--7-7----9----9-9---------------------------------------| x3
A|---7---7-7-----------10---10--------9----9-9---------------------------|
E|-0---0------8--8-----------------10---10-------------------------------|

3:15-END
G------------------------------------------------|
D------------------------------------------------|
A-10~-------------------------10~----------------|
E----8~-12~-10~--12~-8~-3~-10~-------------------|


| /  slide up
| \  slide down
| h  hammer-on
| p  pull-off
| ~  vibrato
| +  harmonic
| x  Mute note
============================================================================
Suggest correction
comments
print report bad tab
guest
You may want to rate the tab now too:
select rating
Please do not post tabs as comments. Select "correction" instead!