Oops, an error
Loading. Please wait.

Criminals tab

version 2
version 2

Whole song

  • I wanted to find a solid tab of the pattern Bradfo... Show more
97 views 1 this week
no commentswrite comment
1 2 3 4 5
3 more votes to show rating
add to favorites
×
Save as Personal and add changes to this tab that will be seen only by you. Learn more ›
×
You can save this tab as Personal to edit and correct it or add notes. All changes will be seen only by you. Learn more »
launch autoscroll
font size
0
reset
how to read this tab
guitar tuner
edit
Autoscroll
slow
fast
+/-
esc
set tempo
stop
About this tab version
I wanted to find a solid tab of the pattern Bradford is playing as well as the chords being played on the second guitar but I couldn't quite find one that was all that accurate, this song is beautiful so I figured that it was a shame for it to not have any half decent tabs, hopefully this one can do something about that. Its pretty easy to play and is all around a simple song as I think almost all of it is just drums and guitar, sounds great on an acoustic but just as good on electric as well. If you spot any glaring errors, please feel free to fix them for the most accurate tab possible. This song doesn't really require a capo but the capo helps, if you'd like a non capo version just leave a comment. By the way, place a pinky on the 3rd then 2nd fret of the high E string while strumming the Am chord for guitar 2. Was this info helpful? Yes No
[Intro]

e|--------------------|--------------------|
B|-----0--------0-----|--------------------|
G|--0-----0--0-----0--|-----2--------0-----|
D|--------------------|--4-----4--2-----2--|
A|--------------------|--------------------|
E|--------------------|--------------------|

e|--------------------|--------------------|
B|-----1--------1-----|-----1--------1-----|
G|--2-----2--2-----2--|--0-----0-----------|
D|--------------------|-----------4-----4--|
A|--------------------|--------------------|
E|--------------------|--------------------|


[Verse]

e|--------------------|--------------------|
B|-----0--------0-----|--------------------|
G|--0-----0--0-----0--|-----2--------0-----|
D|--------------------|--4-----4--2-----2--|
A|--------------------|--------------------|
E|--------------------|--------------------|

e|--------------------|--------------------|
B|-----1--------1-----|-----0--------0-----|
G|--2-----2--2-----2--|--4-----4-----------|
D|--------------------|-----------4-----4--|
A|--------------------|--------------------|
E|--------------------|--------------------|


[Chorus]

e|--------------------|--------------------|
B|-----3-----3-----3--|-----5-----5-----7--|
G|--4-----4-----4-----|--2-----2-----2-----|
D|--------------------|--------------------|
A|--------------------|--------------------|
E|--------------------|--------------------|

e|--------------------|--------------------|
B|-----3-----3-----3--|-----5-----5--5--5--|
G|--4-----4-----4-----|--2-----2-----------|
D|--------------------|--------------------|
A|--------------------|--------------------|
E|--------------------|--------------------|

e|--------------------|--------------------|
B|-----3-----3-----3--|-----5-----7-----7--|
G|--4-----4-----4-----|--2-----2-----2-----|
D|--------------------|--------------------|
A|--------------------|--------------------|
E|--------------------|--------------------|

e|--------------------|--------------------|
B|-----3-----3-----3--|-----5-----5-----5--|
G|--4-----4-----4-----|--2-----2-----2-----|
D|--------------------|--------------------|
A|--------------------|--------------------|
E|--------------------|--------------------|


[Verse]

e|--------------------|--------------------|
B|-----0--------0-----|--------------------|
G|--0-----0--0-----0--|-----2--------0-----|
D|--------------------|--4-----4--2-----2--|
A|--------------------|--------------------|
E|--------------------|--------------------|

e|--------------------|--------------------|
B|-----1-----1-----1--|-----1-----0-----0--|
G|--2-----2-----2-----|--0-----0-----------|
D|--------------------|--------------4-----|
A|--------------------|--------------------|
E|--------------------|--------------------|

e|--------------------|--------------------|
B|-----0--------0-----|--------------------|
G|--0-----0--0-----0--|-----2--------0-----|
D|--------------------|--4-----4--2-----2--|
A|--------------------|--------------------|
E|--------------------|--------------------|

e|--------------------|--------------------|
B|-----1--------1-----|-----0-----0-----0--|
G|--2-----2--2-----2--|--------------------|
D|--------------------|--4-----4-----4-----|
A|--------------------|--------------------|
E|--------------------|--------------------|


[Chorus]

e|--------------------|--------------------|
B|-----3-----3-----3--|-----5-----5-----7--|
G|--4-----4-----4-----|--2-----2-----2-----|
D|--------------------|--------------------|
A|--------------------|--------------------|
E|--------------------|--------------------|

e|--------------------|--------------------|
B|-----3-----3-----3--|-----5-----5--5--5--|
G|--4-----4-----4-----|--2-----2-----------|
D|--------------------|--------------------|
A|--------------------|--------------------|
E|--------------------|--------------------|

e|--------------------|--------------------|
B|-----3-----3-----3--|-----5-----7-----7--|
G|--4-----4-----4-----|--2-----2-----2-----|
D|--------------------|--------------------|
A|--------------------|--------------------|
E|--------------------|--------------------|

e|--------------------|--------------------|
B|-----3-----3-----3--|-----5-----5-----5--|
G|--4-----4-----4-----|--2-----2-----2-----|
D|--------------------|--------------------|
A|--------------------|--------------------|
E|--------------------|--------------------|


[Bridge]

e|-----------------------------------------|
B|-----------------------------------------|
G|--4-----4-----4--------------------------|    (x8)
D|-----4-----4-----4/2--0------------------|
A|-----------------------------------------|
E|-----------------------------------------|


e|--------------------|--------------------|
B|-----0--------0-----|--------------------|
G|--0-----0--0-----0--|-----2--------2-----|
D|--------------------|--4-----4--4-----4--|    (x2)
A|--------------------|--------------------|
E|--------------------|--------------------|


[Verse]

e|--------------------|--------------------|
B|-----0--------0-----|--------------------|
G|--0-----0--0-----0--|-----2--------0-----|
D|--------------------|--4-----4--2-----2--|
A|--------------------|--------------------|
E|--------------------|--------------------|

e|--------------------|--------------------|
B|-----1--------1-----|-----1--------1-----|
G|--2-----2--2-----2--|--0-----0-----------|
D|--------------------|-----------4-----4--|
A|--------------------|--------------------|
E|--------------------|--------------------|

e|--------------------|--------------------|
B|-----0--------0-----|--------------------|
G|--0-----0--0-----0--|-----2--------0-----|
D|--------------------|--4-----4--2-----2--|
A|--------------------|--------------------|
E|--------------------|--------------------|

e|--------------------|--------------------|
B|-----1--------1-----|-----3-----3h5--5—5-|
G|--2-----2--2-----2--|--4-----4-----------|
D|--------------------|--------------------|
A|--------------------|--------------------|
E|--------------------|--------------------|


[Chorus]

e|--------------------|--------------------|
B|-----3-----3-----3--|-----5-----7--7--5--|
G|--4-----4-----4-----|--2-----2-----------|
D|--------------------|--------------------|
A|--------------------|--------------------|
E|--------------------|--------------------|

e|--------------------|--------------------|
B|-----3-----3-----3--|-----5-----7--5--7--|
G|--4-----4-----4-----|--2-----2-----------|
D|--------------------|--------------------|
A|--------------------|--------------------|
E|--------------------|--------------------|

e|--------------------|--------------------|
B|-----3-----5--3-----|--7--5-----7--5-----|
G|--4-----4--------4--|--------2--------2--|
D|--------------------|--------------------|
A|--------------------|--------------------|
E|--------------------|--------------------|


e|--------------------|--------------------|
B|-----3-----5--3--7--|--5--3-----3-----3--|
G|--4-----4-----------|--------4-----4-----|
D|--------------------|--------------------|
A|--------------------|--------------------|
E|--------------------|--------------------|


[Outro]

e|--------------------|--------------------|
B|-----0--------0-----|--------------------|
G|--0-----0--0-----0--|-----2--2-----2--2--|
D|--------------------|--4--------4--------|
A|--------------------|--------------------|
E|--------------------|--------------------|

e|--------------------|--------------------|
B|-----0--------0-----|--------------------|
G|--0-----0--0-----0--|-----2--2-----2-----|
D|--------------------|--4--------4-----4--|
A|--------------------|--------------------|
E|--------------------|--------------------|

e|--------------------|--------------------|
B|-----0--------------|--------------------|
G|--0-----------------|--------------------|
D|--------------------|--------------------|
A|--------------------|--------------------|
E|--------------------|--------------------|

Guitar 2: Standard Tuning


[Intro]

G Am G Am (x3)


[Verse 1]

G
This criminal
Am
Walked into my room
Bm        Am
He asked me
Bm                  Am
Why do you live this way?
Bm                     Am
Think of all you could have,
G
What I would take


[Instrumental]

G Am (x2)


[Verse 2]

G                    Am
Well, have you got a clue?
Bm                  Am
Why do you live this way?
Bm      Am
Why do you?
Bm                    Am
Think of all I'd take
D               Am
You think that I don't know?
D               Am
you think that I don't know?
Bm         D
You're wrong
Bm         D
You're wrong


[Bridge]

G       Am
And to god
G       Am
I called out
G       Am
Over bullets
G       Am
They were in and out, man
Bm      Am
And it was my end
Bm      Am
At least I called into question
Bm      Am
Why we walk this route
Bm       Am
What is for me in it

[Instrumental]

G Am (x2)


[Outro]

G

************************************

| h   Hammer-on
| /   Slide up

************************************

            
            
Suggest correction
Creating personal tab
Creating personal tab
You can edit any tab online and save it as your Personal.

You can edit, replace or remove any tab part or add personal notes – all changes will be seen only by you.

Personal tabs can be accessed anytime from any device, even offline.
Learn more »
Give kudos to tab author, rate the tab!
1 2 3 4 5
comments
print report bad tab
guest
You may want to rate the tab now too:
select rating
Wanna post a correction for this tab? Suggest correction