Oops, an error
Loading. Please wait.

Terra Incognita Tab

version 2
version 2

Whole song

1,784 views 6 this week
no commentswrite comment
1 2 3 4 5
x 3
add to favorites
launch autoscroll
font size
0
reset
how to read this tab
guitar tuner
Autoscroll
slow
fast
+/-
esc
set tempo
stop
Help us to improve Ultimate-Guitar.com Take our survey!
×
Author
-------------------------------------------------------------------------------
                       TERRA INCOGNITA - ATLAS SOUND
-------------------------------------------------------------------------------
Tabbed by: Zaniar

Tuning: Standard

I listened to the song very carefully to write down the closest rendition 
I possibly could. I hope it is 100% accurate!


This first part repeats during 00:00 - 01:00 and 01:50 - 02:49

e|---8---5---5-------10---7---7---|---8---5---5-------10---7---7---|
B|---5---3---3----8---8---7---7---|---5---3---3----8---8---7---7---|
G|-5-5---4---4-4--9-------7---7-4-|-5-5---4---4-4--9-------7---7-4-|
D|--------------------------------|--------------------------------|
A|--------------------------------|--------------------------------|
E|--------------------------------|--------------------------------| 



This part repeats during 01:00 - 01:49 and 02:50 - 3:37
There is a part that says "13(p)12(h)13," what I mean to do is that 
13 should be plucked, and with your finger held on 12, release 13, 
then quickly place it back. 
It's a very light effect you can hear in the song.
                                       
e|-14--------------|-14-----------------|
B|----14-----------|----14--------------|
G|-------14-13-----|-------14-13---13---|
D|-------------14--|-------------14--14-|
A|-----------------|--------------------|
E|-----------------|--------------------|

e|-12------------------|-12----------------|
B|----12---------------|----12-------------|
G|-------12-11----11---|-------12-11----11-|
D|--------------12--12-|--------------12---|
A|---------------------|-------------------|
E|---------------------|-------------------|

e|-14---------------|-14----------------------------|
B|----14------------|----14-------------------------|
G|-------14-13---13-|-------14-13---13-13(p)12(h)13-|
D|-------------14---|-------------14----------------|
A|------------------|-------------------------------|
E|------------------|-------------------------------|

e|-12------------------|-12----------------|
B|----12---------------|----12-------------|
G|-------12-11----11---|-------12-11---11--|
D|--------------12--12-|-------------12----|
A|---------------------|-------------------|
E|---------------------|-------------------|




This part loops from 3:37 to the end.
Don't play the "(8)" the very first time.


e|---5-6-------|---3-5----|---5-6-----|---3-5----|
B|--8-8-(8)-8--|--6-6-6-6-|--8-8-8-8--|--6-6-6-6-|
G|-7-------7---|-5-----5--|-7-----7---|-5-----5--|
D|-------------|----------|-----------|----------|
A|-------------|----------|-----------|----------|
E|-------------|----------|-----------|----------|
Suggest correction
Give kudos to tab author, rate the tab!
1 2 3 4 5
comments
print report bad tab
guest
You may want to rate the tab now too:
select rating
Wanna post a correction for this tab? Suggest correction