Oops, an error
Loading. Please wait.

Self Hate Bad Dub tab

630 views 1 this week
1 commentread comment
1 2 3 4 5
2 more votes to show rating
add to favorites
×
Save as Personal and add changes to this tab that will be seen only by you. Learn more ›
×
You can save this tab as Personal to edit and correct it or add notes. All changes will be seen only by you. Learn more »
launch autoscroll
font size
0
reset
how to read this tab
guitar tuner
edit
Autoscroll
slow
fast
+/-
esc
set tempo
stop
Played around with it for a few minutes. This sounds pretty much spot on with the song. 
play this over and over again.


e|-13-15-13h15p13--11----13-------------|
G|--------------------13----------------|
B|--------------------------------------|
D|--------------------------------------|
A|--------------------------------------|
E|--------------------------------------|

            
            
Suggest correction
Creating personal tab
Creating personal tab
You can edit any tab online and save it as your Personal.

You can edit, replace or remove any tab part or add personal notes – all changes will be seen only by you.

Personal tabs can be accessed anytime from any device, even offline.
Learn more »
Give kudos to tab author, rate the tab!
1 2 3 4 5
comments
print report bad tab
1 comment total.
0 reply
browky 10 Jun 23, 2013 06:46 PM

e|-13-15-13h15p13--11----13-------------|
G|--------------------13----------------|
B|--------------------------------------|
D|--------------------------------------|
A|-----------------------------7-8------|
E|--------------------------------------|

You can hear the two bass note variation occur throughout the song. Sometimes there is a single note played, where it is instead

e|-13-15-13h15p13--11----13-------------|
G|--------------------13----------------|
B|--------------------------------------|
D|--------------------------------------|
A|-------------------------------8------|
E|--------------------------------------|
then like mr hammer said, play it over and over and over

guest
You may want to rate the tab now too:
select rating
Wanna post a correction for this tab? Suggest correction