Oops, an error
Loading. Please wait.

You bass

9,272 views 6 this week
2 commentsread comments
1 2 3 4 5
x 4
add to favorites
×
Save as Personal and add changes to this tab that will be seen only by you. Learn more ›
×
You can save this tab as Personal to edit and correct it or add notes. All changes will be seen only by you. Learn more »
launch autoscroll
font size
0
reset
guitar tuner
edit
Autoscroll
slow
fast
+/-
esc
set tempo
stop
Author
Difficulty
The verse is played through out the song after the intro

Intro
G---------------------------|
D---------------------------|
A-3-3-3-22-3----------------|
E---------------------------|
  1 2 3 a4 +

Verse/ Chorus

G||----------------------543-----||
D||-------3-3-------------------o||
A||--0-0-------3-3------3-------o||
E||------------------------------||

            
            
Suggest correction
Creating personal tab
Creating personal tab
You can edit any tab online and save it as your Personal.

You can edit, replace or remove any tab part or add personal notes – all changes will be seen only by you.

Personal tabs can be accessed anytime from any device, even offline.
Learn more »
comments
print report bad tab
2 comments total.
0 reply
Points702 31 Aug 04, 2008 02:02 PM

nice tab man

+1 reply
Crossover- 10 Oct 30, 2009 06:36 AM

G||----------------------543-----||
D||-----------------------------o||
A||--0-0-------3-3------3-------o||
E||-------1-1--------------------||

The Bass plays the root notes to the chords Am F C
You can play C and it will sound good cause it's in the chord (fifth to F) but that's not how it's played.

guest
You may want to rate the tab now too:
select rating
Wanna post a correction for this tab? Suggest correction