Oops, an error
Loading. Please wait.

Stone Me Into The Groove Tab

version 1
version 1

Intro

  • This is the real intro with all the hammer-ons and proper bends.

Whole song

1 view 1 this week
no commentswrite comment
1 2 3 4 5
3 more votes to show rating
add to favorites
launch autoscroll
font size
0
reset
how to read this tab
guitar tuner
Autoscroll
slow
fast
+/-
esc
set tempo
stop
Help us to improve Ultimate-Guitar.com Take our survey!
×
Author
Difficulty
intermediate
About this tab version
This is the real intro with all the hammer-ons and proper bends. Was this info helpful? Yes No
[Intro]

e|-----5--------5--------3--------3------------------------------------------|
B|---5--------5--------3--------3--------------------------------------------|
G|-7------7p6------6-5------5p4----------------------------------------------|
D|---------------------------------------------------------------------------|
A|---------------------------------------------------------------------------|
E|---------------------------------------------------------------------------|

e|---------------------------------------------------------------------------------------------------|
B|--------10------------10---13~---------13b15-------11-13---------------------10-11-13--------------|
G|--------10---------10------------12h14-------14-14-------10------------10h12----------10-----------|
D|--------10---10h12--------------------------------------------12-10h12-------------------10h12-12--|
A|---------------------------------------------------------------------------------------------------|
E|-/10-10--------------------------------------------------------------------------------------------|

e|-----------------------------------------------------------------------------------------|
B|--------10------------10---13b15-13b15r13~---13-10---------------------------------------|
G|--------10---------10------------------------------12-10-10-------10-------12b14-12b14---|
D|--------10---10h12------------------------------------------10h12----10h12---------------|
A|-----------------------------------------------------------------------------------------|
E|-/10-10----------------------------------------------------------------------------------|

e|--------------------------------------|
B|--------------------------------------|
G|-10-10-------10---12b14r12h10-12b14---|
D|-------10h12--------------------------|
A|--------------------------------------|
E|--------------------------------------|




************************************

| h   Hammer-on
| p   Pull-off
| r   Release
| b   Bend
| /   Slide up
| ~   Vibrato

************************************
Suggest correction
Give kudos to tab author, rate the tab!
1 2 3 4 5
comments
print report bad tab
guest
You may want to rate the tab now too:
select rating
Wanna post a correction for this tab? Suggest correction