Oops, an error
Loading. Please wait.

Stone Me Into The Groove tab

version 2
version 2

Whole song

4,319 views 18 this week
1 commentread comment
1 2 3 4 5
x 6
add to favorites
×
Save as Personal and add changes to this tab that will be seen only by you. Learn more ›
×
You can save this tab as Personal to edit and correct it or add notes. All changes will be seen only by you. Learn more »
launch autoscroll
font size
0
reset
how to read this tab
guitar tuner
edit
Autoscroll
slow
fast
+/-
esc
set tempo
stop
Atomic Swing - Stone me into the groove

Tabbed by: Stech0

===============================================================================================
I have been seaching for a tab on this on for a while without finding a complete 
tab just intro/chords.
Well I took the time to sit down and tab it out. It might not be 100% but it 
sounds good when I play it.
Neck pickup gives you that groovy sound. 
===============================================================================================


Intro (Riff 1)

------5--------5--------3--------3---|
----5--------5--------3--------3-----|
-/7------7-6------6-5------5-4-------|
-------------------------------------|
-------------------------------------|
-------------------------------------|

Main Riff

---------------------------------------------------------------------------------------------------|
------10-------------10---13~-13-13-10-11-13-------10-11-13----------------------10-11-13----------|
------10---------10--------------------------12b(14)--------10----10-------10h12-----------10----10|
------10---10h12-----------------------------------------------12----10h12--------------------12---|
---------------------------------------------------------------------------------------------------|
10-10----------------------------------------------------------------------------------------------|


------------------------------------------------------------------------------------------------|
----10-------------10---13b-13b-13~---10-10-----------------------------------------------------|
----10---------10---------------------------12-10------10--10-12b-12b-10----10-12b13r12p10h12---|
----10---10h12-------------------------------------12--------------------12---------------------|
------------------------------------------------------------------------------------------------|
-10---------------------------------------------------------------------------------------------|


Fill (Verse 2 before chorus)
--5-------3-------------7---------5--------|
-----6-------5-------------8---------7-----|
--------5-------5-------------7---------7--|
-------------------------------------------|
-------------------------------------------|
-------------------------------------------|


---5----------3-----------------5--------5--------3--------3---|
------6----------5------------5--------5--------3--------3-----|
---------5----------5------/7------7-6------6-5------5-4-------|
---------------------------------------------------------------|
---------------------------------------------------------------|
---------------------------------------------------------------|


Dm                Bb                    F   Fadd9
I woke up and the sun was dressed in blue
Dm                         Bb             F   Fadd9
The Pavavision colours ran out, out in my room
Bb                              F
I wanna paint them wherever you go
C                                G
I wanna thrill you but i want it slow
Bb                                F
I wanna fly in the room of your arms
        A             G         (Riff 1)
I wanna enjoy all of your charms

Dm7
So just stone me into the groove
              Bb         F
You're making everything beautiful
C            Gm
I think it's wonderful
Dm7
Stone me into the groove
        Bb   F  C   Gm   
I wanna go go



Oh, my saviour, my friend, just take me away
from tonight and into today.
Just take me out on a carpet ride, 
(Fill)
into a place where I mustn't hide.
'Cause I'm bored of tthe ancient truth,
I am a car crash in the blue

So just stone me into the groove...

SOLO
---------------------------------------------------------------------|
-----12--10----------------------------------------------------------|
------------13-12-10-10-----12p10----10-10----------10--10-12p10--10-|
-10--------------------10h12-----12--------12-10-12-------------12---|
---------------------------------------------------------------------|
---------------------------------------------------------------------|

-----10-------------------------------10-------------------|
--------13-10----------------------------13-10-------------|
-12b----------10h12-----10h12p10--12b----------10h12-------|
-------------------10h12-----------------------------10h12-|
-----------------------------------------------------------|
-----------------------------------------------------------|

10-9-8-7-6-5-4-3-2-1-0-----------------------------------------------------------------------|
10-9-8-7-6-5-4-3-2-1-0-----------------------------------------------------------------------|
10-9-8-7-6-5-4-3-2-1-0-4-3-2-1-------10h12p10-------10--10-10-12-9--------------------10h12~-|
-----------------------4-3-2-1--10h12---------12-10----------------10--10-12-9---------------|
--------------------------------------------------------------------------------10-12--------|
---------------------------------------------------------------------------------------------|


Dm7
Just name a place
             Bb      F
just name a place where I would not go
Dm7
Just name a place
              Bb     F
just name a place where I would not go
             Bb     F     C         G
'Cause I wanna fly, love, move, cry
Bb   F     C
Fly, fly, love, love
A       Gsus   G
everything that you do


So just stone me into the groove...

Just before the outro solo:

---------------------|
---------------------|
---------------------|
--10-----------------|
-----7-8-------------|
---------8-10/-------|


Outro solo
------------------------------------|------------------------------------|
------------------------------------|------------------------------------|
--12-12p10----10-10--10-12p10-------|--12-12p10----10-10--10-12b13-10----|
-----------12-----------------10h12-|-----------12--------------------12-|
------------------------------------|------------------------------------|
------------------------------------|------------------------------------|

------------------------------------|--------10--------------------------|
------------------------------------|-----------13-10----10--------------|
--12-12p10----10-10--10-12p10-------|--12b13----------10-----------------|
-----------12-----------------10h12-|------------------------------------|
------------------------------------|------------------------------------|
------------------------------------|------------------------8-10/-------|


------------------------------------|------------------------------------|
------------------------------------|------------------------------------|
--12-12p10----10-10--10-12p10-------|--12-12p10----10-10--10-12b13-10----|
-----------12-----------------10h12-|-----------12--------------------12-|
------------------------------------|------------------------------------|
------------------------------------|------------------------------------|

------------------------------------|-------------------15-13------------|
------------------------------------|---/15-13-13~---13------------------|
--12-12p10----10-10--10-12p10-------|------------------------------------|
-----------12-----------------10h12-|------------------------------------|
------------------------------------|------------------------------------|
------------------------------------|------------------------------------|


------------------------------------|------------------------------------|
------------------------------------|------------------------------------|
--12-12p10----10-10--10-12p10-------|--12-12p10----10-10--10-12b13-10----|
-----------12-----------------10h12-|-----------12--------------------12-|
------------------------------------|------------------------------------|
------------------------------------|------------------------------------|

------------------------------------|--------10--------------------------|
------------------------------------|--10b12----13-10--------------------|
--12-12p10----10-10--10-12p10-------|-----------------12-12p10----10-----|
-----------12-----------------10h12-|--------------------------12--------|
------------------------------------|------------------------------------|
------------------------------------|------------------------------------|


----------------------------------|---------------------------------------------------------------|
----------------------------------|---------------------------------------------------------------|
12-12p10----10-10--10-12p10-------|-12-12p10----10-10---------10----10--10-12---------------------|
---------12-----------------10h12-|----------12--------10/12-----12-----------10h12-12-------10-12|
----------------------------------|----------------------------------------------------10-12------|
----------------------------------|---------------------------------------------------------------|


/Enjoy
Suggest correction
Creating personal tab
Creating personal tab
You can edit any tab online and save it as your Personal.

You can edit, replace or remove any tab part or add personal notes – all changes will be seen only by you.

Personal tabs can be accessed anytime from any device, even offline.
Learn more »
comments
print report bad tab
1 comment total.
0 reply
phillip.gould76 10 Jul 03, 2015 02:05 PM

Nice work!

guest
Wanna post a correction for this tab? Suggest correction